Tabs

Solo disponible en BuenasTareas
  • Páginas : 6 (1498 palabras )
  • Descarga(s) : 0
  • Publicado : 26 de diciembre de 2011
Leer documento completo
Vista previa del texto
Intro:

(Guitar 1)
E|---------------------------------------------------------------------------|
B|---------------------------------------------------------------------------|
G|----2--------------------------2--------------------------2----------------|D|----------------3--5-5-5-3-------------------5-5-5-5-----------------------|
A|--------3h5------------------------3h5-------3-3-3-3---1-1---1-3h5-1-1-3---|
E|0-0---0-----3-2------------0-0---0-----3-2-3-------------------------------|
. . . . . . . . .E|---------------------------------------------------------------------------|
B|---------------------------------------------------------------------------|
G|5-5-5-3-----2--------------------------------------------------------------|
D|----------------------------5-3~-------------------------------------------|
A|--------1-1---1-3h5--------------------------------------------------------|E|--------------------7-5-3-5------------------------------------------------|

(Guitar 2)
E|---------------------------------------------------------------------------|
B|---------------------------------------------------------------------------|G|---------------------------------------------------------------------------|
D|0~-----------------8~-----------------x/-----------------------------------|
A|0~-----------------8~-----------------x/-----------------------------------|
E|0~-----------------8~-----------------x/-----------------------------------|E|---------------------------------------------------------------------------|
B|---------------------------------------------------------------------------|
G|---------------------------------------------------------------------------|
D|----------------3--8-8-8-7-------------------5-5-5-5-----------------------|A|----8---7h8--------------------8---7h8-------3-3-3-3-------8---7h8---------|
E|0-0---0-----3-2------------0-0---0-----3-2-3-----------8-8---8-----8-8-10--|
. . . . . . . . .
E|---------------------------------------------------------------------------|
B|---------------------------------------------------------------------------|G|---------------------------------------------------------------------------|
D|---------------------------------------------------------------------------|
A|10-10-10-8-----8---7h8---------8-7~----------------------------------------|
E|-----------8-8---8-----7-5-3-5---------------------------------------------|
. . .Verso:
(Guitar 1)
E|---------------------------------------------------------------------------|
B|---------------------------------------------------------------------------|
G|---------------------------------------------------------------------------|D|0~---3~---10~---/7~--5~--2~---0------0------0----0--7-5---5--3------3------|
A|0~---3~---8~------------------0------0------0----0------7----3------3------|
E|0~---3~---8~------------------0-0000-0-0000-0-00-0-----------3-3333-3------|
.... .... .. ....
E|---------------------------------------------------------------------------|...
tracking img