Tabs

Solo disponible en BuenasTareas
  • Páginas : 10 (2481 palabras )
  • Descarga(s) : 9
  • Publicado : 14 de junio de 2010
Leer documento completo
Vista previa del texto
E----------------------------|---------------------------|
B----0---0----0---0---0----0-|---0---0----0---0---0----0-|
G----------------------------|---------------------------|
D------9===10===7===9===-----|-----9===10===7===9===-----|
A--7===-----------------10===|-7===-----------------10===|E----------------------------|---------------------------|
p i p m p i p m p i p m
1 3 4 1 3 4


| | | | | |
E----------------------------|---------------------------|
B----0---0----0---0---0----0-|---0---0----0---0---0----0-|G----------------------------|---------------------------|
D------9===10===7===9===-----|-7===---------7===---------|
A--7===-----------------10===|-----9===10===----9===10===|
E----------------------------|---------------------------|

1 3 4 1 3 4| | | | | |
E----------------------------|---------------------------|
B----0---0----0---0---0----0-|---0---0----0---0---0----0-|
G----------------------------|---------------------------|
D------9===10===7===9===-----|-----9===10===7===9===-----|A--7===-----------------10===|-7===-----------------10===|
E----------------------------|---------------------------|


| | | | | |
E----------------------------|---------------------------|B----0---0----0---0---0----0-|---0---0----0---0----0---0-|
G----------------------------|---------------------------|
D------9===10===7===9===-----|-7===----------------------|
A--7===-----------------10===|-----9===10===7===---------|
E----------------------------|------------------10===8===|

1 3 4 1 4 2| | | | | |
E---------------------------|--------------------------|
B----0---0----0---0---0---0-|---0---0----0---0---0---0-|
G---------------------------|--------------------------|
D------9===10===7===9===----|-----9===10===7===9===----|A-----------------------9===|----------------------9===|
E--7===---------------------|-7===---------------------|

1 3 4 1 4 3


| | | | | |
E----------------------------|---------------------------|B----0---0---0---0----0----0-|---0----0---0---0----0---0-|
G----------------------------|---------------------------|
D----------7===9===10===12===|-9===10===7===9===---------|
A------9===------------------|------------------10===9===|
E--7===----------------------|---------------------------|1 3 1 1 2 4 1 2 1 3 4 1


| | | | | |
E---------------------------|--------------------------|
B----0---0----0---0---0---0-|---0---0----0---0---0---0-|
G---------------------------|--------------------------|...
tracking img