Tarea

Solo disponible en BuenasTareas
  • Páginas : 7 (1568 palabras )
  • Descarga(s) : 0
  • Publicado : 7 de mayo de 2011
Leer documento completo
Vista previa del texto
ORION
Rhythm Figure 1:
Em Bm 6x
||-----------------|-----------------|-----------------|------------------||
||-----------------|-----------------|-----------------|------------------||||o----------------|-----------------|-----------------|-----------------o||
||o-5-----5----5---|-4-----5-----5---|-4-----4-----4-4-|-4-----4-----4-4-o||
||--7-----7----7---|-7-----7-----7---|-5-----5-----5-5-|-6-----6-----6-6--||
||----0-0---0-0--0-|---0-0---0-0---0-|---7-7---7-7-----|---7-7---7-7------||
x x x x x x x x x x x x x x x x x xE A5 E5 C5
||----------------------------------|---------------------------------|
||----------------------------------|---------------------------------|
||o---------2-----------4-----------|-5-------------------------------|||o-2-2-2-2-----2-2-2-2-----2-2-2-2-|-----2-2-2-2-2---2-2-3---3-3-2---|
||----------------------------------|---------------------------------|
||----------------------------------|---------------------------------|


E C5 E5 A5 4x|---------------------------------|----------------------------------||
|---------------------------------|----------------------------------||
|---------5-----------4-----------|-2-------------------------------o||
|-2-2-2-2-----2-2-2-2-----2-2-2-2-|-----2-2-2-2-2---2-2-3---3-3-2---o|||---------------------------------|----------------------------------||
|---------------------------------|----------------------------------||


Rhythm Figure 2:
A5 B5 C5
||----------------------------------|---------------------------------|||----------------------------------|---------------------------------|
||o---------2-----------4-----------|-5-------------------------------|
||o---------2-----------2-----------|-5-------------------------------|
||----------0-----------2-----------|-3-------------------------------|
||--0---0-0-----0-0-0-0-----0-0-0-0-|-----0-0-0-0-0---0-0-1---1-1-0---|x x x x x x x x x x x x x x x x x x x

C5 E5/B A5 3x
|---------------------------------|----------------------------------||
|---------------------------------|----------------------------------|||---------5-----------4-----------|-2-------------------------------o||
|---------5-----------2-----------|-2-------------------------------o||
|---------3-----------2-----------|-0--------------------------------||
|-0---0-0-----0-0-0-0-----0-0-0-0-|-----0-0-0-0-0---0-0-1---1-1-0----||
x x x x x x x x x x x x x x x x x x x xx x


Repeat Rhythm Figure 1 (2x)


Em
||------------------------------|------------------------------|
||------------------------------|------------------------------|
||o--------h-p-------h-p--------|-------h-p-------h-p----------|...
tracking img