Te amo

Solo disponible en BuenasTareas
  • Páginas : 3 (548 palabras )
  • Descarga(s) : 0
  • Publicado : 9 de marzo de 2011
Leer documento completo
Vista previa del texto
INTRO:
D D2 E Esus4 D D2 E Esus4 D D2 A2
e --2--0-----------------0---2--0------------------0---2--0----------------B -------3-------------0----------3--------------0------------3/2-----0----
G ---------2--1------2--------------2--1-------2------------------------2--
D--0---------2----2---------0---------2-----2---------0------------------2
A ------------2--2---------------------2---2-----------------------0-------
E-------------------------------------------------------------------------

e --------------||
B -0-----0------||
G ---2-----2----||D -----2-----2--||
A --------------||
E --------------||

Verse:

D EEsus4 D E Esus4 D
e ------2-------------0----------2-------------0------------2-----
B----3---3----0--------0------3---3----0--------0-------3-----3--
G ----------2--1--1/2-----2----------2--1--1/2-----2------------2-
D --0----------2-------------0----------2-------------0-----------A -------------2------------------------2-------------------------
E ----------------------------------------------------------------

A2D F#m9
e ----------------------2---------4-----4-----2-----------------|
B ---0-----0-----0----3---3---------2-----2---------------------|G -----2-----2--------------2---------2-----2-------------------| Bis.
D -------2-----2----0-------------------------------------------|
A...
tracking img