Teatros

Solo disponible en BuenasTareas
  • Páginas : 3 (647 palabras )
  • Descarga(s) : 0
  • Publicado : 9 de junio de 2011
Leer documento completo
Vista previa del texto
Mercedes Sosa Todo Cambia
TAB hecho por Werner ♫ Hoefner
whmozart@yahoo.com

Esta canción consiste de tres espectaculares partes:La introducción que denominaremos parte A
El arpegio de acompañamiento que es parte B
El rasgueo rítmico que sería la parte CAquí, para simplificar las cosas, voy a dar las tres partes por
separado y luego armar la estructura de la canción completa
utilizandolas abreviaciones mencionadas (A,B y C)

Esta canción es de 6/8 pero la parte A es tocada como si fuera
un 3/4 (Pá-pa-pa-Pá-pa-pa-Pá-pa-pa).PARTE A
|---------|--------|0-------|3-------|3-------|5-----5-||-1-------|3-------|--------|--------|------3-|---0----|
|-------0-|------0-|------0-|---0----|---0----|--------|
|----2----|---2----|---5----|2-------|--------|--------||-3-------|3-------|3-------|------3-|2-------|--------|
|---------|--------|--------|--------|--------|--------|
CV CVII|-7-------|10h-----|8-------|8-------|8-------|10-8-10-|
|-5-----5-|--------|------5-|------5-|------7-|7-------|
|-7--7----|--------|---5----|---5----|---7----|7-------||-6-------|9h------|7-------|5-------|--------|7-------|
|---------|--------|--------|--------|9-------|--------||---------|--------|--------|--------|--------|--------|

CV CIII
|-8-------|7-----7-|5-----5-|3-------||
|------6--|--------|--------|------3-||...
tracking img