Temas variados

Solo disponible en BuenasTareas
  • Páginas : 6 (1259 palabras )
  • Descarga(s) : 0
  • Publicado : 30 de agosto de 2012
Leer documento completo
Vista previa del texto
Beethoven - Para Elisa
LAS PARTES DE LAS CUERDAS 6 5 Y 4 SON EL ACOMPAÑAMIENTO

E--12--11-12-11-12--7-10-8-5---------5--7-------4-7-8-|---|
B----------------------------------5----------5-------|-5-|
G--------------------------------5--------------------|---|
D------------------------------7------------6---------|---|
A----------------------------7------------7-----------|---|E--------------------------5------------0-------------|---|


E-12-11-12-11-12--7-10-8-5---------5--7-------8-7-5-----|
B--------------------------------5----------5-----------|
G------------------------------5------------------------|
D----------------------------7------------6-----------7-|
A--------------------------7------------7-----------7---|E------------------------5------------0-----------5-----|

E-12-11-12-11-12--7-10-8-5---------5--7-------4-7-8-|---|
B--------------------------------5----------5-------|-5-|
G------------------------------5--------------------|---|
D----------------------------7------------6---------|---|
A--------------------------7------------7-----------|---|
E------------------------5------------0-------------|---|E-12-11-12-11-12--7-10-8-5---------5--7-------8-7-5-----|
B--------------------------------5----------5-----------|
G------------------------------5------------------------|
D----------------------------7------------6-----------7-|
A--------------------------7------------7-----------7---|
E------------------------5------------0-----------5-----|


E-7-8-10-12-------|---13-12-10----|---12-10-8-----|B-----------------|-8-------------|-6-------------|
G-----------------|---------------|---------------|
D--------------10-|-------------9-|-------------7-|
A-----------10----|-----------10--|-----------7---|
E---------8-------|---------------|---------5-----|


E---10-8-7------0-0-12-0-12-12-24-|
B-5-------------------------------|
G---------------------------------|D------------6--------------------|
A----------7----------------------|
E--------0------------------------|


E-11-12-11-12-11-12-11-12-11-12-11-12-|
B-------------------------------------|
G-------------------------------------|
D-------------------------------------|
A-------------------------------------|
E-------------------------------------|


E-7-10-8-5---------5-7--------4-7-8-----|---|B----------------5----------5-----------|-5-|
G--------------5------------------------|---|
D------------7-----------6------------7-|---|
A----------7-----------7------------7---|---|
E--------5-----------0------------5-----|---|


E-12-11-12-11-12--7-10-8-5---------5--7-------8-7-5-----|
B--------------------------------5----------5-----------|G------------------------------5------------------------|
D----------------------------7------------6-----------7-|
A--------------------------7------------7-----------7---|
E------------------------5------------0-----------5-----|


E-7-8-10-12-------|---13-12-10----|---12-10-8-----|
B-----------------|-8-------------|-6-------------|
G-----------------|---------------|---------------|D--------------10-|-------------9-|-------------7-|
A-----------10----|-----------10--|-----------7---|
E---------8-------|---------------|---------5-----|







E---10-8-7------0-0-12-0-12-12-24-|
B-5-------------------------------|
G---------------------------------|
D------------6--------------------|
A----------7----------------------|
E--------0------------------------|


E-11-12-11-12-11-12-11-12-11-12-11-12-|B-------------------------------------|
G-------------------------------------|
D-------------------------------------|
A-------------------------------------|
E-------------------------------------|


E-7-10-8-5---------5-7--------4-7-8-----|---|
B----------------5----------5-----------|-5-|
G--------------5------------------------|---|
D------------7-----------6------------7-|---|...
tracking img