The trooper

Solo disponible en BuenasTareas
  • Páginas : 11 (2646 palabras )
  • Descarga(s) : 0
  • Publicado : 9 de abril de 2010
Leer documento completo
Vista previa del texto
Intro
Moderately Fast Rock Q=160
D.C.
4/4
Gtrs I, II
~~~~~~~~
E E S S E E E S S E E E S S E E E E E +E E S S E E E S S E
|---------------------|-------------------|------------------------|
|---------------------|-------------------|------------------------|
|---------------------|-------------------|------------------------||---------------------|-------------5-----|------------------------|
|-7-7-7p5---5-5-5p3---|-3-3-3p2---5---5-7-|-(7)-7-7p5---5-5-5p3----|
|---------7---------5-|---------3---------|-----------7---------5--|

Gtr I
~~~~~~~~ ~
E E S S E E E E E +E E S S E E E S S E E E S S E E E E E|-------------------|-----------------------|-------------------|
|-------------------|-----------------------|-------------------|
|-------------------|-----------------------|-------------------|
|-------------5-----|-----5-5p4s2-4-4-4p2p0-|-2-2-2p0-----5-----|
|-3-3-3p2---5---5-7-|-(7)-------------------|---------3-5---5-7-|
|---------3---------|-----------------------|-------------------|
|
| Gtr II
| ~~~~~~~~~
| E E S S E E E E E +E E S S E E E S S E E E S S E E E E E
|-------------------|-----------------------|-------------------|
|-------------------|-----------------------|-------------------|
|-------------------|-----------------------|-------------------|
|-------------5-----|-----------------------|-------------5-----||-3-3-3p2---5---5-7-|-(7)-7-7p5---5-5-5p3---|-3-3-3p2---5---5-7-|
|---------3---------|-----------7---------5-|---------3---------|

To Coda
~~~
+E E S S E E E S S E E E S S E E E E E
|-----------------------|-------------------||
|-----------------------|-------------------||
|-----------------------|-------------------||
|-----5-5p4s2-4-4-4p2p0-|-2-2-2p0-----5-----|||-(7)-------------------|---------3-5---5-7-||
|-----------------------|-------------------||
|
| ~~~
| +E E S S E E E S S E E E S S E E E E E
|-----------------------|-------------------||
|-----------------------|-------------------||
|-----------------------|-------------------||
|-----------------------|-------------5-----||
|-(7)-7-7p5---5-5-5p3---|-3-3-3p2---5---5-7-||
|-----------7---------5-|---------3---------||$
+E E Q E E Q E E Q E E E E +E E Q E E Q
||--------------7---------|----------------|-------------7---------|
||o-----8-7tr8----8-7tr8--|-8--------8-----|-----8-7tr8----8-7tr8--|
||------------------------|---9-9--7---7-9-|-(9)-------------------|
||------------------------|----------------|-----------------------|||o-(7)-------------------|----------------|-----------------------|
||------------------------|----------------|-----------------------|
|
| +E E Q E E Q E E Q E E E E +E E Q E E Q
||------------------------|----------------|-----------------------|
||o-------------3---------|----------------|-------------3---------|
||------4-2tr4----4-2tr4--|-4--------------|-----4-2tr4----4-2tr4--|||------------------------|---5-5--4-5-4-5-|-(5)-------------------|
||o-(7)-------------------|----------------|-----------------------|
||------------------------|----------------|-----------------------|

E E Q E E E E +E E Q E E Q
|----------------|-------------7---------|
|-8--------8-----|-----8-7tr8----8-7tr8--|
|---9-9--7---7-9-|-(9)-------------------|
|----------------|-----------------------||----------------|-----------------------|
|----------------|-----------------------|
|
| E E Q E E E E +E E Q E E Q
|----------------|-----------------------|
|----------------|-------------3---------|
|-4--------------|-----4-2tr4----4-2tr4--|
|---5-5--4-5-4-5-|-(5)-------------------|
|----------------|-----------------------|
|----------------|-----------------------|

E E...
tracking img