Tips y ejercicion para bajistas

Solo disponible en BuenasTareas
  • Páginas : 3 (609 palabras )
  • Descarga(s) : 0
  • Publicado : 11 de septiembre de 2010
Leer documento completo
Vista previa del texto
jistasEjercicios de calentamiento en el bajo

Por: Alexmc_bajista, durobass

Indice

1.- Mano derecha
1.1.Series
1.1.1.-1 Repeticion
1.1.2.-2 Repeticiones
1.1.3.-3 Repeticiones o más1.2.- Combinaciones de cuerdas
2.- Mano izquierda
2.1.-Escala cromática
2.2.-Tablas gimnasticas
2.3.-Escalas
2.3.1.-Escala Mayor (G)
2.3.2.-Escala pentatónica menor (G)
2.3.3.-Escalapentatónica blues (G)
2.4.-Ejercicio para abrir mano izquierda
2.5.-Escala cromática variada
2.6.-Triadas
2.6.1.-Triadas acorde mayor (C)
2.6.2.-Triadas acorde menor(C)

1.MANO DERECHA.SERIES:

11 Repeticion.

--------0-0--------
------0-----0------
----0---------0----
--0-------------0--

22 Repeticiones

-----------------0-0—0-0----------------------------0-0-------------0-0-----------
-------0-0-----------------------0-0------
--0-0---------------------------------0-0-

33 Repeticiones o más.-----------------------0-0-0--0-0-0-----------------------
----------------0-0-0----------------0-0-0----------------
---------0-0-0------------------------------0-0-0-----------0-0-0--------------------------------------------0-0-0—

4Combinaciones de cuerdas (De 1, 2, 3 o más series)
I= Indice, M= Medio

---0------ -0------- ---0--------0--- ---0--------0---
--------------------- ------------------0-----0-0------
--------------------- -0-----0-0----- -----------------
-0-----0-0-----0--- ----------------- -----------------
I-M I-M I M I-M I-M I I-M I-M I

2. MANOIZQUIERDA

ESCALA CROMATICA
(1,2,3 o más series)

-----------------------------------------1--2--3--4-
---------------------------1--2--3--4-----------------------------1--2--3--4----------------------------
-1--2--3--4-----------------------------------------
Digitacion: 1 2 3 4 1 2 3 4 1 2 3 4 1 2 3 4
TABLAS GIMNASTICAS
(1,2.3 o más series)...
tracking img