Trabajo del ciber

Solo disponible en BuenasTareas
  • Páginas : 9 (2232 palabras )
  • Descarga(s) : 0
  • Publicado : 21 de febrero de 2011
Leer documento completo
Vista previa del texto
Listen carefully for the Rhythm

repeat x3
e|-9------9------9----9-9-9----9----9-9--7-------7-------7-----7-7-7-7-5-5-5-5-----|
B|---7-7----7-7----7---------7----7---------7-7-----7-7-----7----------------------|
G|---------------------------------------------------------------------------------|
D|---------------------------------------------------------------------------------|A|---------------------------------------------------------------------------------|
E|---------------------------------------------------------------------------------|

e|--------------------------------------9-------9-----9-----9-9-9-9-9-9\2/9--|
B|--7-7-7-7------7-7--9-9-9-9-----9-9------7-7----7-7---7--------------------|G|-----------7-7--------------9-9--------------------------------------------|
D|---------------------------------------------------------------------------|
A|---------------------------------------------------------------------------|
E|---------------------------------------------------------------------------|

e|----------------------------------------7-------7------7---7-7-7-7-5-5-5-5-|B|--7-7-7-7------7-7--9-9-9-9-----9-9--------7-7----7-7----7-----------------|
G|-----------7-7--------------9-9--------------------------------------------|
D|---------------------------------------------------------------------------|
A|---------------------------------------------------------------------------|
E|---------------------------------------------------------------------------|

Linkin Park
Breaking the Habit
Meteora
Tabbed by: RoBWaLdeN
Tuning: Drop D and half step down, drop D flat
NO DISTORTION

main riff starts at 0:09 and continues throughout the song
--------------------------
--------------------------
--------------------------
-----13-13-10-----11-11-10
-8-8----------8-8---------
--------------------------

Thats basically it for guitar in this song, sounds great on acoustic also,
just remember to do itfast over and over in the song...keep in mind about 99
percent of this song is a string orchestra if you saw the dvd included with
meteora. listen to the song to get it..IM me at kornfellow91 on aim with comments
or leave one in the box above. thanks and enjoy.

This is my first tab, so any mistakes or things you can add to the song, especially to
solo please comment.

CAPITAL WORDS:When the chords change in the song
/: Slide to the right
\: Slide to teh left
b: Bend
PM: Palm Mutting
When guitar enters alone and with low volume:

|D------------------------------------|
|A------------------------------------|
|F------7/9-99--1616-16\11-11/12-1212-|
|C------x/x-xx--xxxx-xx\xx-xx/xx-x----|xxx X2 With drums, this stops until bass starts|G------5/7-77--1414-14\09-09/10-1010-|
|C------------------------------------|

When bass starts:

|D------------------------------------|
|A--------------88-8------------------|
|F------4/5-55--xx-x-7-7/9-99---------|
|C------x/x-xx--55-5-x-x/x-x----------|x X Until verse starts
|G------2/3-33--xx-x-5-5/7-77---------|
|C------------------------------------|

For verse there are two guitars: pretty easy guitarsRythm: For all verse is this:

PM-- PM PM
|D-----------------------|
|A-----------------------|
|F----5555-5/7777/9999\5-|
|C----xxxx-x/xxxx/xxxx\x and again and again
|G----3333-3/5555/7777\3-|
|C-----------------------|

Lead: I don´t know pretty well but is something like this Like if you were in F major in
D and A string which will do something likePM------------|
|D-----7--8-10-12-|
|A---88-88-8--8---| or something like that.... i dont really know
|F----------------|
|C----------------|
|G----------------|
|C----------------|

Preschorus:
LIKE the brightest STAR you shine through
PM-----------------------------------------|
|D---------------------------------------------|
|A---------------------------------------------|...
tracking img