Trabajo

Solo disponible en BuenasTareas
  • Páginas : 6 (1448 palabras )
  • Descarga(s) : 0
  • Publicado : 28 de noviembre de 2011
Leer documento completo
Vista previa del texto
Airbag – Ya no Recuerdo.

A Bm
Hoy ya no quiero tu amor
D Dm A
Porque nunca amarás y quiero olvidar
A Bm
Sé que no puedo seguir
D Dm A
Porque nunca vendrás y quieroolvidar

F#m E
Y aunque busques un lugar
F#m
Ya no puedes entrar en mi corazón
D E
Porque hace tiempo que se terminó

A F#m
Ya no recuerdo lo que es el amorD E
Ni para que sirve tu corazón
A F#m
Ya no recuerdo lo que es el amor
D E
Ni para que sirve tu corazón

INTER: A F#m D Dm A

A Bm
Hoy ya no quierotu amor
D Dm A
Porque nunca amarás y quiero olvidar
A Bm
Sé que no puedo seguir
D Dm A
Porque nunca vendrás y quiero olvidar

F#m E
Y aunque busques un lugarF#m
Ya no puedes entrar en mi corazón
D E
Porque hace tiempo que se terminó

A F#m
Ya no recuerdo lo que es el amor
D E
Ni para que sirve tu corazón
AF#m
Ya no recuerdo lo que es el amor
D E
Ni para que sirve tu corazón

A F#m D Dm A


SOLO:
E----------------------------------------------------
B----------------------------------------------------G---18~--18~--18-18~--18/14h16~--14h16p14p13p--------
D--------------------------------------------14h16~--
A----------------------------------------------------
E----------------------------------------------------

E------------------------14~--14p------17^~~-17p16p14p------14~-----B---------------14h17p14h--------17p14h---------------17p14h---17~--
G---------14h16h----------------------------------------------------
D---14h16h----------------------------------------------------------
A-------------------------------------------------------------------E-------------------------------------------------------------------
//esto cantando encima
E---21’21’21h22p19h21p-----------------------------------------------------
B---------------------22p21h22^21p19p---19p---19~------(18)---------------G------------------------------------21h---21h--------/17~----/14~/x--16--
D--------------------------------------------------------------------------
A--------------------------------------------------------------------------
E--------------------------------------------------------------------------

E-----------------------------------14----14-16-14-16-17-16-17-19-17-19-21~...
tracking img