Tsss

Solo disponible en BuenasTareas
  • Páginas : 15 (3566 palabras )
  • Descarga(s) : 0
  • Publicado : 26 de agosto de 2012
Leer documento completo
Vista previa del texto
CHARLY
Intro
(I’m not sure what time signature this is in :P)
G|----------3-|
D|----3---2---|
A|--2---1-----|
E|1-----------|
I slap the first two notes of each set of three and pop the last one. Do whatever
to get that tight funky sound.Verse 1 - :04
(riff 1)
* + * + * + * + * + * + * + * +
G|----------------|----------------|
D|----------------|----------------|
A|-----------x1-0-|--------1--x310-|
E|3--01---3-------|--1-3-----------|

* + * + * + * + * + * + * + * +G|----------------|----------------|
D|----------------|----------------|
A|-----------x1-0-|-------x103-445-|
E|3--01---3-------|--1-3-----------|

(riff 2)
* + * + * + * + * + * + * + * +
G|----------------|----------------|D|----------------|----------------|
A|-----------x1-0-|--------1--x310-|
E|3--01---3-------|--1-3-----------|

* + * + * + * + * + * + * + * +
G|----------------|----------------|
D|----------------|----------------|
A|-----------x1-0-|-------x103--10-|E|3--01---3-------|--1-3-----------|

Repeat riff 1 2x

(riff 3)
* + * + * + * + * + * + * + * +
G|----------------|----------------|
D|----------------|----------------|
A|-----------x1-0-|--------1--x310-|
E|3--01---3-------|--1-3-----------|* + * + * + * + * + * + * + * +
G|----------------|----------------|
D|----------------|----------------|
A|-----------x1-0-|-------x103-4-5-|
E|3--01---3-------|--1-3-----------|

Chorus - :47

* + * + * + * + * + * + * + * +G|----8-------7---|----14------12--|
D|----------------|----------------|
A|----------------|----------------|
E|8-8-----6-6-----|1313----1111----|

Repeat 2x

* + * + * + * + * + * + * + * +
G|----8-------7---|----14------14--|D|----------------|----------------|
A|----------------|----------------|
E|8-8-----6-6-----|1313----1313----|

* + * + * + * +
G|----------------|
D|----------------|
A|----------------|
E|1414141414141414|

Verse 2 - 1:07Riff 1 2x

(riff 4)
* + * + * + * + * + * + * + * +
G|----------------|----------------|
D|----------------|----------------|
A|-----------x1-0-|--------1--x310-|
E|3--01---3-------|--1-3-----------|

* + * + * + * + * + * + * +* +
G|----------------|----------------|
D|----------------|-------x530-----|
A|-----------x1-0-|------------310-|
E|3--01---3-------|--1-3-----------|

Riff 3 1x
Riff 2 1x

Chorus 2 - 1:50

(different ending)...
tracking img