Violet hill [acordes]

Solo disponible en BuenasTareas
  • Páginas : 2 (391 palabras )
  • Descarga(s) : 0
  • Publicado : 10 de enero de 2011
Leer documento completo
Vista previa del texto
Coldplay – Violet Hill (acordes)

Afinacion:

1 C#
2 C#
3 G
4 D
5 A
6 E

No estoy seguro exactamente cuáles son los nombres de los acordes pero tengo más o menos la idea así que ledaré mis propios nombres

C#

C#---0------------
C#---0------------
G-----9------------
D-----11------------
A------11------------
E------0--------------

C#m

C#---0------------C#---0------------
G-----8------------
D-----11------------
A------11------------
E------0--------------

A

C#---0------------
C#---0------------
G-----6------------
D-----7------------A------7------------
E------0------------

F

C#---0------------
C#---0------------
G-----2------------
D-----4------------
A------4------------
E------0------------

G

C#---0------------C#---0------------
G-----8------------
D-----9------------
A-----9------------
E------0------------

B

C#---0------------
C#---0------------
G-----4------------
D-----6------------A-----6------------
E------0------------

No tengo idea que acorde sea asi que llamemoslo C [do]

C

C#---0------------
C#---0------------
G-----13------------
D-----14-----------A-----14------------
E------0------------

La letra es sacada de la página oficial

VERSE 1:

C#
It was a long and dark DecemberC#m
From the rooftops I remember

A F (Just slide down 1 fret 3 times, orjust stay on f)
There was snow, white snow

C#
Clearly I rememberC#m
From the windows they were watching

A F
While we froze down below...
tracking img