When mountains fall

Solo disponible en BuenasTareas
  • Páginas : 3 (616 palabras )
  • Descarga(s) : 0
  • Publicado : 9 de febrero de 2012
Leer documento completo
Vista previa del texto
Intro

------0---1-------------1-------|--0-------------0---------------|
-----------------0-----------0--|------3--1--0-------3--1--0-----|--2-----------2------0----------|--------------------------------|
--------------------------------|--------------------------------|
--------------------------------|--3-------------0---------------|--1--------------3--------------|--------------------------------|

-------------------------|-----------------------------------------|
-------------0-----------|---------------------------0-------------|--2-----2---------2---0--|--------2--------------2-----------------|
-----3-------------------|-----2-----2-----------------------------|
-------------------------|--0------------0~------------------------|--1----------3-----------|-----------------------------------------|

Verse

----------------------------------|-----------------1---0----------|
--1--------1------0---------------|-------------------------1--3---|--------------2--------2---0------|---2---------2------------------|
------2------------------------2--|----------3------0--------------|--0-------------------------------|-------3------------------------|
------------------0---------------|---1----------------------------|

--0--------0----------------|---------0----------------------------|---------------3---1--0-----|----------------0---------0-----------|
--------2----------------2--|--1-----------------0--2--------------|
-----2----------------------|--------------------------------------|--0-------------------------|------3-----3-------------------------|
---------------0------------|--1-------------3---------------------|

----------------------------|--------------------------------------|--1--------1--0-------------|--------1------0------1--0------------|
--------2---------2--0------|--2--------2-------0------------------|
-----2------------------2---|--------------------------------------|...
tracking img