Yui yoshioka

Solo disponible en BuenasTareas
  • Páginas : 2 (439 palabras )
  • Descarga(s) : 0
  • Publicado : 30 de mayo de 2011
Leer documento completo
Vista previa del texto
YUI – a room Chords & Tabs



YUI - a room

Intro:
Bb C F (x2)

Verse:
Bb C F Dm (x2)

Pre-Chorus:
C Dm
C F C

Chorus:
Bb C F Dm (x3)
Bb C

Instrumental:
Bb C F (x2)repeat Verse

repeat Pre-Chorus

repeat Chorus

Bb C Dm (x2)
F Gm A Bb

Bridge:
Gm Am Bb (x3)
C A

Chorus 2:
Bb F Dm
Bb C F Dm (x2)
Bb C

Outro:
Bb C F (repeat till fade)Intro/Instrumental Solo:
Guitar 1
--------------------------------------------------------------
-/10---10/11-10--8\6-8-8/10-10---10/11--10--11-10---8\6-8\6-6---------------------------------------------------------------
--------------------------------------------------------------
----------------------------------------------------------------------------------------------------------------------------

Guitar 2
--------------------------------------------------------------
---------------------------------------------------------------/5---5/7-5--3\2-3-3/5-5---5/7--5--7-5---3\2-3\2-2------------
--------------------------------------------------------------
----------------------------------------------------------------------------------------------------------------------------

Outro Solo:
Guitar 1
--------------------------------------------------------------
-/10---10/11-10--8\6-8-8/10-10---10/11--10--11-10---8\6-8\6-6---------------------------------------------------------------
--------------------------------------------------------------
----------------------------------------------------------------------------------------------------------------------------

-------------------------------------------------------------------
-10/11-10---10/11-10--8\6-8-8/10-10---10/11--10--11-10---8\6-8\6-6--------------------------------------------------------------------
------------------------------------------------------------------- (x2)
-------------------------------------------------------------------...
tracking img