Zelda songs: gerudo valley

Solo disponible en BuenasTareas
  • Páginas : 2 (330 palabras )
  • Descarga(s) : 0
  • Publicado : 9 de febrero de 2012
Leer documento completo
Vista previa del texto
The Legend Of Zelda - Gerudo Valley
By CSGuitar89

Intro
E|-----------5---4-7-9-|---|
B|---------7---6-------|-6-|
G|-------7-------------|-6-|
D|-----6---------------|-6-|A|-4h5-----------------|-4-|
E|---------------------|---|

Rhythm Chords

F#m D E C#

Bass
G|---------|---------|---------|---------|
D|---------|---------|---------|---------|A|---------|-5-5-5-5-|---------|-4-4-4-4-|
E|-2-2-2-2-|---------|-0-0-0-0-|---------|

Lead 1
E|-----4-5-----4-5-----4-5-----4-5-------4-------4---4-----|
B|---7-------7-------7-------7-------5-7-----5-7---7---7-6-|G|-6-------6-------7-------7-------4-------4---------------|
D|---------------------------------------------------------|
A|---------------------------------------------------------|E|---------------------------------------------------------|

E|-----4-5-----4-5-----4-5-----4-5-------4-------4-4-7-5-4-|
B|---7-------7-------7-------7-------5-7-----5-7-----------|G|-6-------6-------7-------7-------4-------4---------------|
D|---------------------------------------------------------|
A|---------------------------------------------------------|E|---------------------------------------------------------|

Lead 2
E|---5-4---------------|---4-----------------|-----|-------------|
B|-------7---5-5h7p7---|-----7-5-------------|-----|-----7-5-----|G|-6-------6---------7-|-4-------7-6-7h9p7-6-|-1st-|-2-4-----7-6-|
D|---------------------|---------------------|-----|-------------|
A|---------------------|---------------------|-----|-------------|E|---------------------|---------------------|-----|-------------|

E|-5-4-5-4-----------|---------------------|
B|-----------5-------|-9-7-9---------------|
G|---------6---7p6-7-|-------9-7-6-7h9-7-6-|D|-------------------|---------------------|
A|-------------------|---------------------|
E|-------------------|---------------------|

E|---------------------------------|-------------|...
tracking img