Acordes Plan B

Páginas: 5 (1010 palabras) Publicado: 9 de febrero de 2016
,,,hay q aprenderse bien los arreglos del ultimo compas de cada ronda,
despues es facil...disfrutenlo..


escala: D#m, F#

tempo: 115
-----------------------------------------------------------------------


PLAN B.(anhelo de satisfaccion)



catupecu machu
Intro:-|


+ + + + + + + +G|----------------|----------------|
D|----------------|----------------|
A|----------------|----------------|
E|----------------|----------------|


+ + + + + + + + + + + + + + + +
G|----------------|----------------|10--11--8-------|10--11--8-------|
D|9---9-9-9---9---|8---8-8-8---8---|----------------|----------------|A|----------------|----------------|----------------|----------------|
E|----------------|----------------|----------------|----------------| x2

---
Y ya me siento desterrado
nadie cree en mi opinion (nadie cree en mi opinion)
y si solo es el aliento de mi alma.

B A# D# D#
+ + + + + + + + + + + + + + + +G|----------------|----------------|----------------|----------------|
D|----------------|-----4----------|1---1-1--1-1----|1---1-1--1-1----|
A|2---2-2--2-2----|1---4---4---1---|----------------|----------------|
E|----------------|----------------|----------------|----------------| x3

---
que alimenta mi calor..

B A# D# D#
+ + + + + + + + + + + + + + + +G|----------------|----------------|----------------|----------------|
D|----------------|-----4----------|1---1-1--1-1----|1//4//6---8/6/4-|
A|2---2-2--2-2----|1---4---4---1---|----------------|----------------|
E|----------------|----------------|----------------|----------------|

---
aaaahhh! ahhhhh! lo que falta es mas tiempo

B A# D# D#
+ + + ++ + + + + + + + + + + +
G|----------------|----------------|----------------|------------3---|
D|----------------|----------------|1---1-1--1-1----|1---3---44------|
A|2---2-2--2-2----|1---1-1--1-1----|----------------|----------------|
E|----------------|----------------|----------------|----------------|

---
aaaahhh! ahhhh! tanto tiempo y todopara vooos!!

B A# D# D#
+ + + + + + + + + + + + + + + +
G|4---------------|----------------|----------------|----------------|
D|----------------|----------------|----------------|----------------|
A|----2-2--2-2----|1---1-1--1-1----|----------------|----------------|E|----------------|----------------|----------------|----------------|

---
y si me encuentro hablando solo (si me encuentro hablando solo)

B A# D# D#
+ + + + + + + + + + + + + + + +
G|----------------|----------------|----------------|----------------|
D|----------------|-----4----------|1---1-1--1-1----|1---1-1--1-1----|A|2---2-2--2-2----|1---4---4---1---|----------------|----------------|
E|----------------|----------------|----------------|----------------|

---
no me importa es mi obsesioon

B A# D# D#
+ + + + + + + + + + + + + + + +
G|----------------|----------------|----------------|3-1---1---------|D|----------------|-----4----------|1---1-1--1-1----|----4---4---4-3-|
A|2---2-2--2-2----|1---4---4---1---|----------------|----------4-----|
E|----------------|----------------|----------------|----------------|

---
y si volando redescubro mis heridas

B A# D# D#
+ + + + + + + + + + + + + + + +
G|----------------|----------------|----------------|----------------|...
Leer documento completo

Regístrate para leer el documento completo.

Estos documentos también te pueden resultar útiles

  • Plan b
  • Plan B
  • Plan b
  • plan b
  • Plan b
  • Plan b
  • plan b
  • PLAN B 04022015

Conviértase en miembro formal de Buenas Tareas

INSCRÍBETE - ES GRATIS