acordes

Páginas: 22 (5354 palabras) Publicado: 20 de mayo de 2013
El Polaco-Deja de llorar
E
deja de llorar deja de sufrir
G#m
ya no puedo verte mas asi
F#
el no se merece tu amor
E
y olvidate de ese hombre infiel

que te hizo sufrir

por que desde hoy
G#m F#
tu vas a ser feliz junto a mi
E
y dejame enseñarte

cuanto yo te quiero
G#m
voy ademostrarte
F#
con mi amor
E
que yo no soy igual

a todos los que amaste
G#m
quiero hacerte mia
F#
ser tu amor
E
por que ya no aguanto mas

el roce de tu piel
G#m
a mi me vuelve loco de placer

es tan grande el deseo
F#
no me puedo contener..

El padrino1|--0-3-2-0-3-0-2-0-------0-3-2-0-3-0-2-0-----------0-2-----0-3-
2|-0---------------1-3-0-0---------------0---------1-----0-4---3
3|-------------------------------------------3-2-0------0-------
4|-----------------------------------------------------------2--
5|--------------------------------------------------------------
6|--------------------------------------------------------------1|---------------------|
2|-1-0-3-1-0-0-4-------|
3|---------------------|
4|---------------------|
5|---------------------|
6|---------------------|





Calipso-Las pastillas del abuelo

A G
1--------------------------------
2----55---5---------33---3-------
3----66---6---------44---4-------
4-------------------------------- X4 intro
5-------7--------------5---------6--5--------5s3---3--------3s5---

(1)

A G
1--------------------------------
2----55---5---------33---3-------
3----66---6---------44---4-------
4-------------------------------- X4 canta la estrofa de abajo
5-------7--------------5---------
6--5--------5s3---3--------3s5---

Una vez más siento la necesidad
De respirarte en los ambientes más oscuros
De desafiar las leyesde la gravedad
Falsa alegría cambiada por tu cianuro.

(2)

C A
1------------------------------
2---11---1---1-----22---2---2--
3---00---0---0-----22---2---2--
4------------------------------ X3 canta la estrofa de abajo
5-3--------3----0---------0----
6------3--------------0--------

Necesidad de unirme al ghetto
De los que apelan a besarte
En escondites biensecretos

(3)

D
1---2-2-2-2-2-2-2-2--
2---3-3-3-3-3-3-3-3--
3---------------2-2-- X1
4-0------------------
5--------------------
6--------------------

Con la locura como estandarte.

(4) ESTRIBILLO

F#m Bm
No te permito que me saques todo el hambre Conviene tocarla
F#m Bm con cejilla para ir
Que me acostumbres a atar todocon alambre cortando el sonido.
G A
Me das mil canciones de buena madera.
G G G
1------------------------------------------------------3---
2------------77-------77--------77---------77-----33---3---
3------------77-------77--------77---------77-----44---4---4-------0----------------------------------------------5---
5-----------------4------------------------------------5---
6---------------------------7---------5---------3------3---
Cualquier estación para mi es primavera con vos…

G A
Pero cuando te vas…
D G A
Me dejas con la más dulce pena matándome adentro
D G A
y un otoño vacío en el centro quesolo se llena
G A
con un poco más de tú esencia en las venas.

(1)

Me pongo goma, me pongo parlanchín
voy rebotando de Argentina hasta Japón
me cuelgo con historias que no tienen fin
y me preocupo por problemas sin solución.

(2)

Voy escuchando dancing move,
la sonrisa de oreja a oreja
es un problema de actitud.

(3)

y ahora los dejo...
Leer documento completo

Regístrate para leer el documento completo.

Estos documentos también te pueden resultar útiles

  • Acordes
  • Acordes
  • Acordes
  • acordes
  • Acordes
  • Acordes
  • acordes
  • Acordes

Conviértase en miembro formal de Buenas Tareas

INSCRÍBETE - ES GRATIS