Acordes

Páginas: 4 (773 palabras) Publicado: 14 de marzo de 2013
Venus by Shocking Blue

|[pic]. |[pic]. |[pic]. |[pic]. |[pic]. |[pic]. |[pic]. |


intro,.- B7sus4 - Em - A - Em - A - x2

Em AEm A
A goddess on a mountain top
Em A Em A
burning like asilver flame
Em A Em A
a submint of beaty and love
Em A Em
and venuswas her name.

e----------------------
B----------------------
G----------------------
D----------------------
A-------0-1-2-0--------
E-0--3----------3------
Am D
she s got it
AmD Em A
yeah baby, she s got it
C7
im your venus
B7 Em
im your fire at your desire

solo: Em - A - Em- A - Em - Ae-/--15-14-12-------------------------------------
B-/-15-14-12--12----------------------------------
G----------------14--12--------------------------- x2
D-----------------------14-14------12--14---------A------------------------------14-----------------
E-------------------------------------------------

e--------------------------------------------------------------
B--------------------------------------------------------------G-------------11/12--12--11-----------------11/12---12--11-----
D-----12--14-----------------14-----12--14------------------14-
A-14-----------------------------14----------------------------E--------------------------------------------------------------

e------------------------------------------------------------
B------------------------------------------------------------G------------------------------------------------------------
D----12--14-----12--14-12------------------------------------
A-14---------14------------14--12-------5--7--7--------------E---------------------------------12--7----------------------

Em A Em A
her weapons were her crystal eyes
Em A Em A
making every man mad
Em A Em...
Leer documento completo

Regístrate para leer el documento completo.

Estos documentos también te pueden resultar útiles

  • Acordes
  • Acordes
  • Acordes
  • acordes
  • Acordes
  • Acordes
  • acordes
  • acordes

Conviértase en miembro formal de Buenas Tareas

INSCRÍBETE - ES GRATIS