Bamba Solo

Páginas: 3 (600 palabras) Publicado: 6 de octubre de 2012
Aquí empieza el solo
E--------------------------|----------------------------|
B--------------------------|----------------------------|G--------------------------|----------------------------|
D--3--0--2-----0-----------|----------------------------|
A-----------3-----2--3--0--|--2-----0----------0--2--3--|
E--------------------------|-----3-----3-1--3-----------|E--------------------------|--0--1-----0--1-----0--1--|-3-3-3-3-3-3-3-3-3-|
B-----------------0--1--3--|--------3--------3--------|-------------------|G-----------0--2-----------|--------------------------|-------------------|
D--0--2--3-----------------|--------------------------|-------------------|
A--------------------------|--------------------------|-------------------|E--------------------------|--------------------------|-------------------|



E-3-3-3-3-3-3-3-12------5--|--3—5—3---1--1—3—1--0--1-----0-----|B--------------------------|--------------------------3-----1--|
G--------------------------|-----------------------------------|
D--------------------------|-----------------------------------|A--------------------------|-----------------------------------|
E--------------------------|-----------------------------------|




E-----0-------------------------|----------------------------|B--3-----1--3—0—1--0----0-------|----------------------------|
G----------------------2-----0--|--2--0----0--------0--------|
D-------------------------------|-------3-----2--3-----2--3--|A-------------------------------|----------------------------|
E-------------------------------|----------------------------|




E---------------------------------|------------------------------------|B---------------------------------|------------------------------------|
G--------0---------0—2--0-4--0-0-|--5-0-0-0-0-7-0-0-0-4-0-0-0-7-0-0-0--|
D--0--------2---3-----------------|------------------------------------|...
Leer documento completo

Regístrate para leer el documento completo.

Estos documentos también te pueden resultar útiles

  • la bamba
  • Al bamba
  • La Bamba
  • Bambas
  • Bamb
  • Bamba
  • la bamba
  • bambas

Conviértase en miembro formal de Buenas Tareas

INSCRÍBETE - ES GRATIS