Guitar

Páginas: 3 (598 palabras) Publicado: 26 de octubre de 2011
|1. |2.
E|--0----------|------------|----------| |-------------| |---------||
B|-----3--1--0-|-0--1--0----|-0--------| |-1--3--1-0-1-||---------||
G|*------------|----------0-|----2--0-*| |-------------| |--2------||
D|*------------|------------|---------*| |-------------| |---------||A|--0----------|------------|----------| |-0-----------| |--0------||
E|-------------|-3----------|-0--------| |-------------| |---------||1st time 2nd time
------------------------- ----------------|1. |2.
E|-8--10-8-10-|-7----------| |-------7-8-|-7--8---10--| |--------7-8/12-||
B|------------|----10----8-||-8--10-----|------------| |-8--10---------||
G|------------|------------| |-----------|------------| |---------------||
D|------------|------------||-----------|------------| |---------------||
A|------------|------------| |-----------|------------| |---------------||
E|------------|------------| |-----------|------------||---------------||
| | | | | | | ||
E|-0----------|------------| |-----------|------------||---------------||
B|----3--1--0-|-0--1--0----| |-0---------|-1--3-1-0-1-| |-0-------------||
G|------------|----------0-| |----2----0-|------------||----2-----0----||
D|------------|------------| |-----------|------------| |---------------||
A|-0----------|------------| |-----------|-0----------| |---------------||...
Leer documento completo

Regístrate para leer el documento completo.

Estos documentos también te pueden resultar útiles

  • Guitar
  • Guitar
  • la guitara
  • Guit
  • Guitar
  • Guitar
  • Guitar!
  • Guitar

Conviértase en miembro formal de Buenas Tareas

INSCRÍBETE - ES GRATIS