LOCO POR VOLVERLA A VER

Páginas: 6 (1420 palabras) Publicado: 20 de enero de 2016
LOCO POR VOLVERLA A VER


Intro: C - Dm - F - C (x3)

C
Sabes que no sueño con vos al dormir,
Dm
no es bueno soñar con los angeles de hoy
F C
Sabes que miento siempre que hay una buena ocasión

C
También sabes que un consejero me dijo
Dm
Hecho el amor hecha la trampa y al pie
FC - C* - C
de la letra sigo ese hermoso consejo cruel.

C
El que no arriesga no gana dijiste,
Dm
el que arriesga puede morir por amor
F C
te dije y comprendiste que no iba a ser yo

A# F C - C* - C
El que cubra tu cuerpo en noches de frío
A# F C - C* - C
El que teregale rosas sin espinas
Am F
El que aparte de ser sexo sea un amigo
G
El que derroche amor en cada esquina


C - Dm - F - C - C* - C C - Dm - F - C



C
¿Tanto te cuesta dar besos a una sola?
Dm
Te juro que amor nunca te va a faltar
F C - C* - C
Mi amor eso noimporta lo que importa es variedad

C
Es mejor ser presa de un hombre y no el polvo
Dm
insipido y oscuro de más de dos dijiste
F C
y comprendi que no ibas a ser vos
A# F C
La que comparta mis besos con cualquiera
A# F C - C* - C
La que pise fuerte el acelerador
AmF
La que quiera hacerlo de muchas maneras
G
La que sepa bien fingir cuando no haya amor

A# F C - C* - C
Pero les cuento señores que me asombra
A# F C - C* - C
lo mucho que puede cambiar la mujer
Am F
Ahora ella es laque se esconde entre las sombras
G
y yo estoy aqui tan loco por volverla a ver

A# F C
Tendré que tomar el toro por las astas
A# F C
en verdad no tengo tiempo que perder
Am F
Esta vida no me tira buenas cartas

G
pero en otravida espero volverla a ver

Final: C - Dm - F - C (x2)
Dm - F - C

Acordes:

C C* Dm F A# G
e||--0----3----1----1----1----3--||
B||--1----1----3----1----3----3--||
G||--0----0----2----2----3----0--||
D||--2----2----0----3----3----0--||
A||--3----3----x----3----1----2--||
E||--0----0----x----1----1----3--||

DO
1|-------------5-8-5---------5---2|-------5--8---------8-5-8------
3|----5--------------------------
4|-------------------------------
5|-------------------------------
6|-------------------------------


REm
1|----------5---8--8h12---10--8----
2|-------6-------------------------
3|----7----------------------------
4|---------------------------------
5|---------------------------------
6|---------------------------------

FADO
1|----------------------------------
2|--5h6--5------5h6-----5-----------
3|---------7--5-----------7--5-(5)--
4|----------------------------------
5|----------------------------------
6|----------------------------------

LAMENTO BOLIVIANO


MIm
Me quieren agitar, me incitan a gritar
SIm
soy como una roca, palabras no me tocan
LAm7
adentro hay un volcán que pronto va a estallarMIm SI7
yo quiero estar tranquilo.
MIm
Es mi situación,una desolación
SIm
soy como un lamento, lamento boliviano
LAm7
que un día empezó y no va a terminar
MIm SI7
ya nadie hace daño.
MIm SIm
uoh,yoh,yoh,yoh,oh,oh
LAm7 MIm-SI7
eh,eh,eh,eh,yeh
MIm SIm
Y yo estoy aquí borracho y loco
LAm7 min-SI7
y mi corazón idiota...
Leer documento completo

Regístrate para leer el documento completo.

Estos documentos también te pueden resultar útiles

  • Como volver loca a una mujer
  • “Ni loca me dejaría ver con eso puesto”
  • Loca loca te volviste loca
  • el año en que nos volvimos todos un poco locos
  • Como volver locos a tus competidores
  • Apuntes para volverse a ver
  • hasta que nos volvamos a ver
  • Quiero ver algo sin registrarme loco

Conviértase en miembro formal de Buenas Tareas

INSCRÍBETE - ES GRATIS