Locura Espacial

Páginas: 6 (1354 palabras) Publicado: 1 de diciembre de 2012
Locura espacial
Chancho en piedra

Intro (using wah-wah)
E|--12-12-12----xxxx--xx----------------12-11-9-----------------|
B|--------------xxxx--xx-5h7-5-7b8-5------------12-10-9---------|
G|---9--9--9--------------------------------------------11b12---|
D|--------------------------------------------------------------|
A|--------------------------------------------------------------|E|--------------------------------------------------------------|

E|-------xx--xxxx-------------------12-12-----------------------|
B|--9----xx--xxxx-5h7-5-7b8-5----12--------------12-------------|
G|--9----xx--xxxx--------------------9--9-----------------------|
D|--9-----------------------------9---------------9-------------|A|--------------------------------------------------------------|
E|--------------------------------------------------------------|

E|--------------------------------------------------------------|
B|--9--9--10--10---9---9----------------------------------------|
G|--9--9---9---9---9---9--9-------------------------------------|
D|--9--9---9---9---9---9----11-9--------------------------------|A|-------------------------------12-11-9------------------------|
E|--------------------------------------------------------------|

E|--------------------------------------------------------------|
B|--9--9--10--10---9---9----------------------------------------|
G|--9--9---9---9---9---9--9-------------------------------------|
D|--9--9---9---9---9---9----11-9--------------------------------|A|-------------------------------12-11-9------------------------|
E|--------------------------------------------------------------|

Verso
E|--4--4---4--4----4-5---5--5----4--4--4--4---------------------|
B|--5--5---5--5----5-5---5--5----5--5--5--5--5-7-7b8-5-7-7b8----|
G|--4--4---4--4----4-4---4--4----4--4--4--4---------------------|
D|--------------------------------------------------------------|A|--------------------------------------------------------------|
E|--------------------------------------------------------------|

E|--4--4---4--4----4-5---5--5----4--4--4--4--12-11--------------|
B|--5--5---5--5----5-5---5--5----5--5--5--5--------12-----------|
G|--4--4---4--4----4-4---4--4----4--4--4--4-----------10-9------|
D|---------------------------------------------------------11b12|A|--------------------------------------------------------------|
E|--------------------------------------------------------------|

E|--4--4---4--4----4-5---5--5----4--4--4--4---------------------|
B|--5--5---5--5----5-5---5--5----5--5--5--5--5-7-7b8-5-7-7b8----|
G|--4--4---4--4----4-4---4--4----4--4--4--4---------------------|
D|--------------------------------------------------------------|A|--------------------------------------------------------------|
E|--------------------------------------------------------------|

E|--4--4---4--4----4-5---5--5----4--4--4--4------12-12-12-------|
B|--5--5---5--5----5-5---5--5----5--5--5--5---12----------------|
G|--4--4---4--4----4-4---4--4----4--4--4--4-------9--9--9-------|
D|---------------------------------------------9----------------|A|--------------------------------------------------------------|
E|--------------------------------------------------------------|






E|-----12-12-12-12----------------------------------------------|
B|--12----------------------------------------------------------|
G|------9--9--9--9----------------------------------------------|D|---9----------------------------------------------------------|
A|--------------------------------------------------------------|
E|--------------------------------------------------------------|

(with distorsión)
E|--------------------------------------------------------------|
B|--------------------------------------------------------------|
G|--------------------------------------------------------------|...
Leer documento completo

Regístrate para leer el documento completo.

Estos documentos también te pueden resultar útiles

  • espacialidad
  • ESPACIAL
  • locura locura
  • Espacialidad
  • Locuras
  • LA LOCURA
  • La Locura
  • la locura

Conviértase en miembro formal de Buenas Tareas

INSCRÍBETE - ES GRATIS