Etimologias 3er periodo

Solo disponible en BuenasTareas
  • Páginas : 3 (715 palabras )
  • Descarga(s) : 0
  • Publicado : 25 de enero de 2012
Leer documento completo
Vista previa del texto
Rating: 8.6/10 (627 votos)
Metallica Rules!!!!!!! Questions or Comments? e-mail me at
Jaek85@hotmail.comFirst comes the horn,
intro is by James.(acoustic)
|--------------------------------|
|-0-----0-----0-----0-----1------||---2-----2-----2-----2-----2----|
|-----2-----2-----2-----2-----2--|
|-0------------------------------|
|--------------------------------|This repeats until Kirk starts playing, then play:

Clean electric by Kirk:
|------------------------------------------||------------------------------------------|
|--2--4--4h5---5-4-2----2--4--4h5---5--2---|
|------------------------------------------||------------------------------------------|
|------------------------------------------|

|------------------------------------------||------------------------------------------|
|--2--4--4h5---5-4-2----2--4--4h5---5--2---|
|------------------------------------------||------------------------------------------|
|------------------------------------------|

|-------------------------------------------||-------------------------------------------|
|--2--4--4h5--5--5-5-4-----4-----2--2h4--2--|
|-----------------------5----2-2------------||-------------------------------------------|
|-------------------------------------------|

|------------------------------------------------|...
tracking img