Otherside

Solo disponible en BuenasTareas
  • Páginas : 2 (378 palabras )
  • Descarga(s) : 0
  • Publicado : 21 de diciembre de 2011
Leer documento completo
Vista previa del texto
Intro: Otherside

|----------------------------------------------------
|----------------------------------------------------|---------------------------------------------------- Repeat this twice
|---222-77-9-7-5-222-000 ---------------------------|----------------------------------------------------
|----------------------------------------------------

|----------------------------------------------------|----------------------------------------------------
|----------------------------------------------------
|---222-77 14-14-14----------------------------------|-------------------14-14-14-10-10-10 7--------------
|----------------------------------------------------

Or this one|----------------------------------------------------
|----------------------------------------------------|----------------------------------------------------
|---222-77-9-7---------------------------------------
|--------------10-777-555----------------------------|----------------------------------------------------

|----------------------------------------------------
|----------------------------------------------------|----------------------------------------------------
|---222-77 14-14-14----------------------------------
|-------------------14-14-14-10-10-107--------------
|----------------------------------------------------

Am F C )
How long how long will I slide )
G Am...
tracking img