Te vas a acordar de mi

Solo disponible en BuenasTareas
  • Páginas : 2 (263 palabras )
  • Descarga(s) : 4
  • Publicado : 4 de agosto de 2010
Leer documento completo
Vista previa del texto
TE VAS A ACORDAR DE MI

1-0-0-0---------------------------------------------
2-1-1-1--3-1-3h5-3-1-3h1---1-3h5-3-1-3-1------------3--------4---------------2--------------------------
4---------------------------------------------------
5---------------------------------------------------6---------------------------------------------------

1--8-5-------------3---------------------------------2-8----8-5-3-1-3-5---5-3-1---5-5-3-------------------
3--------------------------2-------------------------
4---------------------------------------------------5---------------------------------------------------
6---------------------------------------------------


A E
Te vas a acordar de mi,
F#m D
se muy bien que meextra~aras
A Bm
cuando la Luna ilumine tus ojos
E
en su obscuridad.

A E
Cuando escuches esta cancion
F#m D
que nace de mi corazon
A
vas a pensar con horror
ED F#m E
en lo grave de tu error.

A E
Cuando otros labios toquen tus labios
F#m D
tu me vas a comparar,
A
todo sera diferente
Bm E
tu misma lo comprobaras.

DE
Y mis palabras de amor la Luna
F#m A7
a tus oidos dira una a una.
D Dm
Entonces vas a llorar y te arrepentiras
A Bm E
de dejarme asi: medio moribundo por ti.A E
Cuando otras manos toquen tu cuerpo
F#m D
y cuando te hagan el amor
A
todo sera diferente,
Bm E
pues nadie sera como yo.

D E
Y mis palabrasde amor la Luna
F#m A7
a tus oidos dira una a una.
D Dm
Entonces vas a llorar y te arrepentiras
A Bm E
de dejarme asi: medio moribundo por ti.

A E
Te vas...
tracking img