0Ola

Solo disponible en BuenasTareas
  • Páginas : 4 (897 palabras )
  • Descarga(s) : 0
  • Publicado : 9 de octubre de 2010
Leer documento completo
Vista previa del texto
Intro
6/8 time
Eb-------0-----|-------0-----|-------0-----|-------0---7-|
Bb-----0---0---|-----0---0---|-----0---0---|-----0---0---|Gb---0-------0-|---0-------0-|---0-------0-|---0---------|
Db-------------|-------------|-------------|-------------|Ab-------------|-------------|-------------|-------------|
Eb-0-----------|-0-----------|-0-----------|-0-----------|
P (9/8 time) H P S P SEb-7-----------7^0---------|---------7---8---7^85---7-5-/0------|
Bb---------0-------0-------|---------0---0-----------0-------5---|
Gb-----0---------------0---|-----0-------------------------------|Db-------------------------|-------------------------------------|
Ab-------------------------|-------------------------------------|Eb-0-----------------------|-0-----------------------------------|
P
Eb-------------2^0---------|-------------0---0---0---|Bb-5-------5-------5-------|---------5-------5---5---|
Gb-----5---------------5---|-----5-----------5---5---|
Db-------------------------|-------------------------|Ab-0-----------------------|-0---------------0---2---|
Eb-------------------------|-------------------------|
P H P P HEb-0-----------3^0-----0---|-0----------0^5^0---------|
Bb-5-------5-------5---5---|-7---7-5-7--------7^0-5^0-|
Gb-5-----5---5-------5-5---|-7------------------------|Db-------------------------|--------------------------|
Ab-3---3---------------3---|-5------------------------|
Eb-------------------------|--------------------------|...
tracking img