Ac.dc

Solo disponible en BuenasTareas
  • Páginas : 6 (1315 palabras )
  • Descarga(s) : 4
  • Publicado : 15 de mayo de 2010
Leer documento completo
Vista previa del texto
Baby please dont go
key to tablature:
p=pull off
h=hammeron
/=slide up
=slide down
x=mute note
b=bend
r=release bend
==let ring
~=vibrato

rythm figure one (played by both guitars)
E|---------------------------------------|
B|---------------------------------------|
G|---------------------------------------|
D|---------------------------------------|A|---------------------------------------|
E|-0-0-0-0---0-0-0-0---0-0-0-0---0-0-0-0-|
play four times

rythm figure two (guitar one's part)
E|---------------|
B|-12-15-12------|
G|----------12-9-|
D|---------------|
A|---------------|
E|---------------|
play four times

rythm figure two (guitar two's part)
E|-----------|
B|-----------|
G|-----------|
D|---0-------|
A|-2---2-----|
E|-------3-0-|play four times

rythm figure three (played by both guitars)
E|-12====------12h15p12----------------10h12h15-12-10-12-|
B|-------15-15----------15p12p10====15-------------------|
G|-------------------------------------------------------|
D|-------------------------------------------------------|
A|-------------------------------------------------------|E|-------------------------------------------------------|

E|----------------------------------------------------|
B|-12-10b--12-----------------------------------------|
G|------------14-12-14-12--9-7-9----------------------|
D|-------------------------------9----9---------------|
A|---------------------------------10-----7-7-2-0-----|
E|------------------------------------------------3-0-|

rythm figure three(played by both guitars)
E|-----------------------------------------------------------------|
B|-----------------------------------------------------------------|
G|-----------------------------------------------------------------|
D|-----------------------------------------------------------------|
A|-----------------------------------------------------------------|E|-7-0---7-0---7---7-0---7-0---7---7-0---7-0---7-|

E|------------------------------|
B|------------------------------|
G|------------------------------|
D|----------------------2-------|
A|----------------------0-------|
E|-7-0---7-0--7-----5-3-0-|
repeat throughout verses

rythm figure four (played by both guitars)
E|------------------------------------------------------------------|B|------------------------------------------------------------------|
G|------------------------------------------------------------------|
D|--------------------------------------------------------------1-2-|
A|---2-4---4-4-5---5-5-6---6-6-7---7-7-8---8-8-9---------0-2-3------|
E|-0-0-2---2-2-3---3-3-4---4-4-5---5-5-6---6-6-7---0-2-3------------|

play rythm figure three again

guitar solo
guitar onewill play the solo while guitar two plays
the following.
E|--------------------|
B|--------------------|
G|--------------------|
D|-10-10-10-10---8h10-|
A|--------------------|
E|--------------------|
play throughout solo

solo
E|----------------------------------------------------------------|
B|-12-12-12-------------10h12-10-8-5===---------------------------|G|------------9-12-9----------------------------------12-14-14---|
D|-------------------------------------x-12h14-17p14--------------|
A|----------------------------------------------------------------|
E|----------------------------------------------------------------|

E|------------------------------------------------------|
B|-12--10p8h10-12---12--5-5-5---12-12-12-5---5~~~~~~~~|G|------------------------------------------------------|
D|------------------------------------------------------|
A|------------------------------------------------------|
E|------------------------------------------------------|

E|--------------------------------------------------------|
B|-12-12-12-12-5-----------------------------------------|
G|------------------7h9-9---9h12p9---9-7-9-9---9-7-9-12---|...
tracking img