Beber de tu sangre

Solo disponible en BuenasTareas
  • Páginas : 6 (1253 palabras )
  • Descarga(s) : 0
  • Publicado : 29 de diciembre de 2011
Leer documento completo
Vista previa del texto
los Amantes de Lola
Beber De Tu Sangre

Intro solo
E---------------|----------|--------------------|------------|--------|
B----12/13------|----------|--------------------|------------|--------|G-----------10--|-------10-|-12--10-------------|-10--10-----|--------|
D---------------|10/12-----|---------12--10--12-|---------10-|----10--|
A---------------|----------|--------------------|------------|/12-----|
E---------------|----------|--------------------|------------|--------|

Dm A# F C
Tantas cosas en mi mente me aterranE--1--|
B--3--|
G--2--|
D--0--|
A--0--|
E--0--|

Dm A# F C
El pensar en todo y nada de una vez
E--------------------------|B--------------------------|
G---12-10-------------10/--|
D----------12--10-12-------|
A--------------------------|
E--------------------------|

Dm A# F C
El estar dormido el soñar con frio
E--------------------------|B--------------------------|
G---12-10-------------10---|
D----------12--10-12-------|
A--------------------------|
E--------------------------|

Dm A# F C
El permanecer perdido buscandote x2E-----------------------------------------------------------------------|
B-----------------------------------------------------------------------|
G-----------------------------------------------------------------------|
D---3--2--3-----0-----3--2--3-----------3--2--3-----------3--2--3-3/5-/-|A---------------------------------1--------------0----------------------|
E-----------------------------------------------------------------------|

Dm A# F C
En los muros de mi casa tan fria
E--1--|
B--3--|
G--2--|
D--0--|
A--0--|
E--0--|Dm A# F C
Puedo pensar en algo para hacer calor
E--------------------------|
B-13-----------------------|
G----------10--12--10------|
D----10-12-----------------|
A--------------------------|
E--------------------------|Dm A# F C
El moverme me hace titubear y dudar
E--------------------|
B-11\10--------------|
G-------10-----------|
D----------12-10-12--|
A--------------------|
E--------------------|

Elpensar en ti me hace recordar............
A#, Dm, C, Dm, x4 estas pisadas se tocan solo una vez cada una y
la ultima Dm no se toca en la cuarta vez

Podría gritar.........
Dm, A#, F, C, x4 estas pisadas ya llevan ritmo

Al terminar las cuatro veces entra de nuevo...
tracking img