El poder

Solo disponible en BuenasTareas
  • Páginas : 4 (799 palabras )
  • Descarga(s) : 0
  • Publicado : 10 de mayo de 2011
Leer documento completo
Vista previa del texto
hooooooooooooooooooooooooooooooooooooooooooooooooooooooooooo

ooooooooooooooooooooooooooooooooooooooooooaaaaaaaaaaaaaaaaaa

aaaaaaaaaaaaaaaaaaaaaaaaaaaaaaaaaaaaalllllllllllllllllllllllllllllllllllllllaaaaaaaaaaaaaaaaaaaaaayyyyyyyyyyyyyyyyyyyyyy

yyyyyyyyyyyyyyyyyyyyyyyyyyyyyyyyyyyyyyyyyyyyyyyyyyyyyyyyyyyy

yyyyyyyyyyyyyyyyyyyyyyyyyyyyyyyyyyyyyyyyyyyyyyyyyyyyyyyyyyyy**********************************************************************

Intro
I guitarra

e)|-------------------------------------------0-|
B)|--5-----5-----5-----5-----5-----5-----5----1-|G)|-5-----5-----5-----5-----5-----5-----5-----2-|
D)|7--7--5--5--4--4--3--3--7--7--5--5--4--4---3-|
A)|---------------------------------------------|
E)|---------------------------------------------|

IIguitarra

e)|--0-1-5--7-8n10--8-7--7n8-7-5---------------------|
B)|-------------------------------5-6-5--1n3-1n3--1--|
G)|------------------------------------------------2-|D)|--------------------------------------------------|
A)|--------------------------------------------------|
E)|--------------------------------------------------|

I guitarrae)|-------------------------------------------------|
B)|--5-----5-----5-----5-----5-----5-----5-----5----|
G)|-5-----5-----5-----5-----5-----5-----5-----5-----|
D)|7--7--5--5--4--4--3--3--7--7--5--5--4--4--3--3---|A)|-------------------------------------------------|
E)|-------------------------------------------------|

1er Verso:

e)|------------------------------------------------|B)|--5-----5-----5-----5-----5-----5-----5-----5---|
G)|-5-----5-----5-----5-----5-----5-----5-----5----|
D)|7--7--5--5--4--4--3--3--7--7--5--5--4--4--3--3--|
A)|------------------------------------------------|E)|------------------------------------------------|

Am C
El me da ese amor deseaba el amor
D F
Que cuando se entrega muere
Am C
Ese fiel amor que allí me espero
D...
tracking img