Fade to black

Solo disponible en BuenasTareas
  • Páginas : 7 (1575 palabras )
  • Descarga(s) : 0
  • Publicado : 12 de mayo de 2011
Leer documento completo
Vista previa del texto
|------------------------|------------------------|
|------------------------|------------------------|
|-------0----------------|-------0----------------|
|----4-----4-----4-----4-|----4-----4-----4-----4-|
|-2-----------2-----5----|-0-----------0-----5----|
|------------------------|------------------------|

|------------------------|------------------------||------------------------|------------------------|
|-------0----------------|-------2----------------|
|----4-----4-----4-----4-|----2-----2-----2-----2-|
|-2-----------2-----5----|-4-----------4-----0----|
|------------------------|------------------------|

w/Flanger or chorus
|----------------------------------------------------------|
|-----------------------------------------------7----------||--------------------------------------------7-(7)---------|
|--------------------------------------/-9-----------9-----|
|----------------------------------------------------------|
|----------------------------------------------------------|

|--------------------------|-----------------------|
|-----7--8-/-10------8--10-|-12---10---8---10------|
|--------------------------|-----------------------||--------------------------|-----------------------|
|--------------------------|-----------------------|
|--------------------------|-----------------------|

p p sl h p h
|------------------------------|---------------------|
|-(10)---12^10^8--7^8^7-----7-|-7^8--7-----7--------|
|-------------------------9----|---------9-----9---7-||------------------------------|---------------------|
|------------------------------|---------------------|
|------------------------------|---------------------|

sl sl p
|----------------------------|-----------------|-----|
|----------------------------|---------------8-|-7---|
|----------------------7--6-|----------7^6----|-----||-7---9----------(9)--------|-----------------|-----|
|----------------------------|-----------------|-----|
|----------------------------|-----------------|-----|

sl ~~~~~~~~~~~~~~
|---------------------|
|-8-/-10--------------|
|---------------------|
|---------------------|
|---------------------|
|---------------------|full
p ) ~~~~~~~~~~~~~
|---14-19-14-----15^14---------------------/--------------|
|-15--------15--------15---17-15-14-------/---------------|
|-------------16--------14---------16-14-/----(14)---------|
|----------------------------------------------------------|
|----------------------------------------------------------||----------------------------------------------------------|

h ~~~~~~~~~~ h h p
|---------------------------------------------------------|
|---------------------------------14-15-14^15^14----14^15-|
|-14^16---------------------14-16----------------16-------|
|--------14----------14^16--------------------------------|
|---------------------------------------------------------||---------------------------------------------------------|

~~~~~~~~~~~~~~~~~
|----19--17--15----------15--17-|-14----------------------|
|-14----------------------------|----15-------------------|
|-------------------------------|-------16----------------|
|-------------------------------|-------------------------||-------------------------------|-------------------------|
|-------------------------------|-------------------------|

|-14--15--14--------------14--15--14------17----15--14-----|
|---------------15--------------------15-------------------|
|------------------14--------------------------------------|
|----------------------------------------------------------|
|----------------------------------------------------------|...
tracking img