Lkdmvposmdf

Solo disponible en BuenasTareas
  • Páginas : 6 (1390 palabras )
  • Descarga(s) : 0
  • Publicado : 26 de noviembre de 2011
Leer documento completo
Vista previa del texto
Perfect weapon


D|-17h18p17-15--------15-----|
A|------------18p17p18---17--|
F|---------------------------|
C|---------------------------|
G|---------------------------|
C|---------------------------|D|----15-13----13--------------------------------------------------|
A|-----------15---15-13---15-13---13-------------------------------|
F|------------------------------14---14-12---14-12-10----12-10-----|
C|-------------------------------------------------------------12--|
G|-----------------------------------------------------------------|C|-----------------------------------------------------------------|

D|--------------------------|
A|--------------------------|
F|----10--------------------|
C|-------12--10--12-10------|
G|---------------------12---|
C|--------------------------|D|--------------------------------------------------------------|
A|---------------------------------------10---------------------|
F|------------------10--10---12p10p12-------12-10-12-10---10*---|
C|---10---12p10p12----12-------------------------------12-------|G|-12-----------------------------------------------------------|
C|--------------------------------------------------------------|

(variations of this little tap)
D|-t13p10p8h10--|
A|--------------|
F|--------------|
C|--------------|
G|--------------|
C|--------------|(tremelo bit)
D|---121212-13131313-151515--131313--1515-17b----17-15-13-----------|
A|---------------------------------------------------------17b-15*--|
F|------------------------------------------------------------------|
C|------------------------------------------------------------------|G|------------------------------------------------------------------|
C|------------------------------------------------------------------|

D|-13h15-13h15---12h13p12-----10h11p10---10------------------------------------|
A|------------------------------------13---13--11p13p11-----11-----------------|F|-------------------------------------------------------14---14---12-14-12----|
C|--------------------------------------------------------------------------15-|
G|-----------------------------------------------------------------------------|
C|-----------------------------------------------------------------------------|D|----------------------------------|
A|----------------------------------|
F|-12---------------12-1212b~~~-----|
C|------15--14-12~~~----------------|
G|----------------------------------|
C|----------------------------------|

(little hammer-on bit)D|-----------------------------------------------------------------|
A|-----------------------------------------------------/15b-13-15--|
F|----7h9p7-------9--10---9h10p9-------10-12--10h12p10---------17b-|
C|-----------------------------------------------------------------|
G|-----------------------------------------------------------------|...
tracking img