Mas descriptivo

Solo disponible en BuenasTareas
  • Páginas : 11 (2685 palabras )
  • Descarga(s) : 7
  • Publicado : 4 de marzo de 2010
Leer documento completo
Vista previa del texto
Cielo (Benny Ibarra)

INTRO...(x2)
G C D/Dsus
E---3------------------------------------------------
-----------------3----------------------------------
---------------------------------0------------------
----0--0--0-------0-----0---0--------------3--------
-----2--2-----------1-1----------------------2------e------2-------------------0------2--2/3--2-----1----
G C D
CIELO POR TU LUZ, POR ESA CARICIA
G C D
YO SERIA CAPAZ... DE RENDIR, MI SER
G C D
YA NO TIENE CASO, MIRAR HACIA OTRO LADO
Em C G
TODO LO K ESPERO... LO ENCUENTRO EN TI
G C D
SIENTETE SEGURA, KE NO TE QUEPA DUDAG C D
CUENTA CON MI VIDA Y MI DEBOSION
G C D
VIVO PARA AMARTE, PARA MI ALEJARME
Em C G
ES COMO QUEDAR, SIN RESPIRACION

*CORO* (Todo el coro es rasgeo exepto el ultino Sol)
Em C G
EL CIELO EN TU MIRADA, EN CADA MADRUGADA
Em C D/Dsus
ES A DONDE PIERDO MICONFUSION
Em C G
Y CUANDO ESTAS AUSENTE, TE ABRAZO A MI MENTE
Em C G
CIELO PARA PODER VIVIR
Em C G
MI CIELO PARA SOBRE VIVIR

SE REPITE EL INTRO, PERO CON EL Em ARPEGEADO TMB
G C D
E---3------------------------------------------------
-----------------3-------------------------------------------------------------------0------------------
----0--0--0-------0-----0---0--------------3--------
-----2--2-----------1-1----------------------2------
e------2-------------------0------2--2/3--2-----1----

Em C G
E-------------------------------- AKI TERNINA EL
----2--------------------------- ARPEGEO Y LE SIGEN
----2-----------2------------0-- TRES RASGEOS------0---0--------0----0-------
--------0------------2-2--------
e------------0---0---------0--2--

AHI UN PEQUEÑO SOLIDO DEL PIANO... LO SAQUE COMO REKINTO
E------------------|--------------|-----------|------------------
------------------|--------------|-----------|------------------
------------------|--------------|-----------|------------------------------------|--------------|-----------|------------------
------------------|--------------|-----------|-------5-----3----
e5-7--5-5--3---5--3|-7--5-5-3-5-7-|-7-5-5-3-5-|-5-7-5---3-3---3-3

Em C G
EL CIELO EN TU MIRADA, EN CADA MADRUGADA
Em C D/Dsus
ES A DONDE PIERDO MI CONFUSION
Em C G
Y CUANDO ESTAS AUSENTE, TE ABRAZO A MIMENTE
Em C G
CIELO PARA PODER VIVIR
Em C G
MI CIELO PARA SOBRE VIVIR

Inspiración (Benny Ibarra)

Intro (E ,A ,B)

E A B
No se como describir
E A B
desde el vacio que hay en mi
C#m
Una voz
A B
Inspiracion que me hace sonar
E A B
Vuelvo a escuchar dentro de mi
EA B
ese deseo de sentir
C#m
un amor
A B
que la de vida a mi palpitar

Coro

C#m A
Y sin palabras me calmas
E A
me llevas ahi a descubrir
B E
todo lo vivo dentro de mi
C#m A
y en el silencio me amas
E A
y puedo vivir de tus suspiros
B
quebesan mi ser
E
Vuelvo a nacer

E A B
Oigo en tu pecho mi cancion
E A B
y entre tus brazos se quien soy
C#m A B
soy tu amor, tu refejo, tu pasion
E A B
Y en esta paz de tu calor
E A B
vuelve a cantar mi corazon
C#m
Oooooo
A B
Tu besos...
tracking img