Para ti

Solo disponible en BuenasTareas
  • Páginas : 6 (1360 palabras )
  • Descarga(s) : 9
  • Publicado : 7 de abril de 2010
Leer documento completo
Vista previa del texto
Esta es mi primera rola del Mago de Oz espero subir mas rolas
de estos Cabronesssssss y chingona banda.

Este punteo de C y Am se toca en toda la rola al igual que el intro.

Intro:

( 2 veces )
C
E|------------------------------------------------------------------
B|-----1----------1----------0----------0----------3----------3-----G|-------0----------0----------0----------0----------0----------0---
D|---2-----2----2-----2----2-----2----2-----2----2-----2----2-----2-
A|-3----------3----------3----------3----------3----------3---------
E|------------------------------------------------------------------

Am
E|------------------------------------------------------------------
B|-----1----------1----------0----------0----------3----------3-----G|-------2----------2----------2----------2----------2----------2---
D|---2-----2----2-----2----2-----2----2-----2----2-----2----2-----2-
A|-0----------0----------0----------0----------0-----------0--------
E|------------------------------------------------------------------

Hay veces que
E|------------------------------------------------------------------B|-----1----------1----------0----------0----------3----------3-----
G|-------0----------0----------0----------0----------0----------0---
D|---2-----2----2-----2----2-----2----2-----2----2-----2----2-----2-
A|-3----------3----------3----------3----------3----------3---------
E|------------------------------------------------------------------
mi alma baila tangos con la soledadE|------------------------------------------------------------------
B|-----1----------1----------0----------0----------3----------3-----
G|-------2----------2----------2----------2----------2----------2---
D|---2-----2----2-----2----2-----2----2-----2----2-----2----2-----2-
A|-0----------0----------0----------0----------0-----------0--------
E|------------------------------------------------------------------y necesito de tabla tu amor
E|------------------------------------------------------------------
B|-----1----------1----------0----------0----------3----------3-----
G|-------0----------0----------0----------0----------0----------0---
D|---2-----2----2-----2----2-----2----2-----2----2-----2----2-----2-
A|-3----------3----------3----------3----------3----------3---------E|------------------------------------------------------------------
para asirme a ella en mi tempestad.
E|------------------------------------------------------------------
B|-----1----------1----------0----------0----------3----------3-----
G|-------2----------2----------2----------2----------2----------2---
D|---2-----2----2-----2----2-----2----2-----2----2-----2----2-----2-A|-0----------0----------0----------0----------0-----------0--------
E|------------------------------------------------------------------
pensando en ti
E|------------------------------------------------------------------
B|-----1----------1----------0----------0----------3----------3-----
G|-------0----------0----------0----------0----------0----------0---D|---2-----2----2-----2----2-----2----2-----2----2-----2----2-----2-
A|-3----------3----------3----------3----------3----------3---------
E|------------------------------------------------------------------
paso el dia pensando en ti.
E|------------------------------------------------------------------
B|-----1----------1----------0----------0----------3----------3-----G|-------2----------2----------2----------2----------2----------2---
D|---2-----2----2-----2----2-----2----2-----2----2-----2----2-----2-
A|-0----------0----------0----------0----------0-----------0--------
E|------------------------------------------------------------------
Enseñame
E|------------------------------------------------------------------
B|-----1----------1----------0----------0----------3----------3-----...
tracking img