Roock

Solo disponible en BuenasTareas
  • Páginas : 6 (1467 palabras )
  • Descarga(s) : 0
  • Publicado : 17 de noviembre de 2011
Leer documento completo
Vista previa del texto
In 4/4, with a pretty fast (190 b.p.m. or thereabouts) shuffle-ish beat.

----|------------------------|-----------------------|------------------------|
T---|------------------------|-----------------------|------------------------|
A-16/17-----14-17/16----12-16/14----11-14----11-12-14/16----12-16/14----11-14-|B---|----14----------12------|---12-------12---------|---12----------12-------|
----|------------------------|-----------------------|------------------------|
----|------------------------|-----------------------|------------------------|


|----------------
|----------------|-12-11/9----9~~~
|---------12-----
|----------------
|----------------


He does all sorts of pervertations and convolutions on this; the last
bar is also played:

|----------------|----------------
|-12-11/9--------
|---------12-9~~~
|----------------
|----------------

-and-

----|------------------------|-----------------------|------------------------|----|------------------------|------------12~--------|------------------------|
--16/17-----14-17/16----12-16/14----11-14----11-12-14/16----12-16/14----11-14-|
----|----14----------12------|---12------------------|---12----------12-------|
----|------------------------|-----------------------|------------------------|----|------------------------|-----------------------|------------------------|

|------------10~~~
|----------------
|-12-11/9--------
|---------12-----
|----------------
|----------------



This is my bash at the intro to the song; I'm afraid that Ican differentiate
the different bits into bars--just play the lot as fast as you can.


|--15'--15-12-14----12--------12----------------12-15-14p12----14-12----------
|----------------15----12-15~---15p12-----12-15-------------15-------15p12-15-|-------------------------------------14'-------------------------------------
|-----------------------------------------------------------------------------
|-----------------------------------------------------------------------------
|-0-----------------------------------------------------------------------------12-----------------------------------------------5-7-6-5-----------------
-----15p12----15p12----15p12------------------5--8---------8-5---5-7---5-3-
-----------14-------14'-------14'(14)p12----7------------------7-----4-----
-----------------------------------------14-----------------------------------------------------------------------------------------------------------
---------------------------------------------------------------------------

---------------------------------------------
-----------------------------------------8'--
--4p2---4p2----------------------------------
------5-----5-2----5-2-----2-0---------------...
tracking img