Hola

Páginas: 3 (521 palabras) Publicado: 6 de octubre de 2012
Author/Artist: Johann Pachelbel
Title: Canon in D

This song is just great, it isn`t that hard either. Both the rythm guitar
and the solo guitar are tuned 1/4 step down on the original track.You`ll
have to figure out the tempo and timing yourself...
The chords are the same through the whole song:
|C |G |Am |Em |F |C |F |G |
Sologuitar:---8---7----5---3-------------------------------------------------------------
--8---8----5---5----6----5----6----8----8----8----10---8----6----5----6----8--
-9---9----5---5----5----5----5----7----9----9----9----9----5----5----5----7--7------------------7----5----7----9---10----9---10----9----7----5----7----9----
------------------------------------------------------------------------------------------------------------------------------------------------------------

#1
-3--0-1-3-0-1-3-----------0-1---0-----0-----0----------------|------------------------------------0-1-3---------1-3---1-3-----------0-1-3--|--1-----1-1-3-1-
----------------0-2-------------------------------0-2--------|----2-4---------
----------------------------------------------2-3------------|-----------------------------------------------------------------------------|----------------
-------------------------------------------------------------|--------------------------------|----1-0--------------------0-1--|--3--0-1-3-0-1-3--------1---
-------------0--|--------3-1---0------0-1-3------|------------------0-1-3-----
---------0-2----|--2---------2----0-2------------|-------------------------------0-2-3--------|--------------------------------|----------------------------
-3--------------|--------------------------------|--------------------------------------------|--------------------------------|----------------------------

#2
-0-----0-----0----------------|--------------------------|----1-0-------------
---1-3---1-3-----------0-1-3--|--1--1-3-1-------------0--|--------3-1---0-----...
Leer documento completo

Regístrate para leer el documento completo.

Estos documentos también te pueden resultar útiles

  • hola hola hola hola
  • hola hola hola hola hola
  • hola hola hhola hola y hola
  • hola hola hola
  • Hola Hola Hola
  • Hola Hola Hola
  • hola hola hola
  • hola hola hola

Conviértase en miembro formal de Buenas Tareas

INSCRÍBETE - ES GRATIS