Acordes

Solo disponible en BuenasTareas
  • Páginas : 12 (2966 palabras )
  • Descarga(s) : 0
  • Publicado : 3 de enero de 2011
Leer documento completo
Vista previa del texto
Esta es la transcripcion mas perfecta de esta cancion,
las demas que yo conozco estan mal en algunas partes
o incompletas,asi que tuve que sacarla yo mismo.

INTRO:
"un,dos,tres,un dos,tres...."
Con acustica -x2:
e:-------0--------------0-------------0------------0-------
B:------1-1------------1-1-----------0-0----------3-3------G:-----2---2----------2---2---------1---1--------1---1-----
D:-2--------------2-------------2------------2-------------
A:-0--------------0-------------2------------2-------------
E:------------------------------0------------0-------------

2ªparte del intro(aqui entra el solo introductorio):
----------x2-------------- --------------x2------------
e:-------0--------------0----I--------1--------------1-------B:------1-1------------1-1---I-------3-3------------3-3------
G:-----2---2----------2---2--I--2---2---2------2---2---2-----
D:-2--------------2----------I--0--------------0-------------
A:-0--------------0----------I-------------------------------
E:---------------------------I-------------------------------

e:-------3--------------3-------------3----------3-3-----0---B:------3-3------------3-3-----------3-3---------3-3-----1---
G:-----0---0----------0---0---------0---0--------0-0--2--2---
D:--------------------------------------------0-------2------
A:-2--------------2-------------2-------------2-------0------
E:-3--------------3-------------3-------------3--------------

SOLO(introductorio):
e:-----------------------------------------------------------B:-----------------------------------------------------------
G:-----------------------------------------------------------
D:---/7-7-9/10--9-7-9/10---7--------/7-7-9/10--9-7-9/10---7--
A:-----------------------------------------------------------
E:-----------------------------------------------------------

e:------------------------------------------
B:------------------------------------------G:--7/10///7-------------7/10///7-----------
D:----------7--5--7--7-----------7--5--7--7-
A:--------------8--------------------8------
E:------------------------------------------

e:----------------------------
B:----------------------------
G:----------------------------
D:---/7----7-9/10--9-7-7/8-7-5
A:----------------------------
E:----------------------------e:--------------------------------------
B:--------------------------------------
G:-------------------------11-9-7vvv----
D:--4/5---7/8-8-8-----------------------
A:----------------8/9-8--8--------------
E:--------------------------------------

VERSOS:
Se toca la segunda parte del intro:
"Desde el fondo de la tierra..."

CORO:
"ay,no quiero amarte..."e:-------0--------------0-------------0------------0-------
B:------1-1------------1-1-----------0-0----------0-0------
G:-----2---2----------2---2---------1---1--------1---1-----
D:-2--------------2-------------2------------2-------------
A:-0--------------0-------------2------------2-------------
E:------------------------------0------------0-------------

"aaay,dejame ver tu..."-x2e:-------0--------------0-------------0------------0-------
B:------1-1------------1-1-----------0-0----------0-0------
G:-----2---2----------2---2---------1---1--------1---1-----
D:-2--------------2-------------2------------2-------------
A:-0--------------0-------------2------------2-------------
E:------------------------------0------------0-------------

"dejame ayudarte..."e:-------3--------------3----I--------1--------------1-------
B:------3-3------------3-3---I-------3-3------------3-3------
G:-----0---0----------0---0--I--2---2---2------2---2---2-----
D:---------------------------I--0--------------0-------------
A:-2--------------2----------I-------------------------------
E:-3--------------3----------I-------------------------------

"...y asi sera..."
-----------x2-----------...
tracking img