Anabantha

Solo disponible en BuenasTareas
  • Páginas : 3 (535 palabras )
  • Descarga(s) : 0
  • Publicado : 2 de diciembre de 2011
Leer documento completo
Vista previa del texto
ANABANTHA – DEJA VU ACUSTICO
INTRO

GUITARRA 1
1]-----------------|------------------|2]-------4-5-4-----|-------4-5-4------|
3]-----6-------6---|-----6-------6----|
4]---6-----------6-|---6-----------6--|
5]-4---------------|-4----------------|6]-----------------|------------------|

1]-----------------|---------2/4-----|
2]-------4-5-4-----|-------0-----5---|3]-----6-------6---|-----6-----------|
4]---6-----------6-|---6-------------|
5]-0---------------|-0---------------|6]-----------------|-----------------|

GUITARRA 2
1]-9-11-12-|-9-11-12-11-9-11-9---------|---------------|2]---------|-------------------10h9h10-|-10h12h10-9h10-|
3]---------|---------------------------|---------------|
4]---------|---------------------------|---------------|5]---------|---------------------------|---------------|
6]---------|---------------------------|---------------|

1]-9-11-12-|-9-11-12-11-9-11-9---------------------|2]---------|-------------------10h9h10-9----9/10-9-|
3]---------|-----------------------------11--------|4]---------|---------------------------------------|
5]---------|---------------------------------------|
6]---------|---------------------------------------|1]--------------7-7---------|-12-11-9-------------------|
2]-------7-9-10-----10-9-10-|---------12-10-9----9----9-|
3]-6-8-9--------------------|-----------------11---11---|...
tracking img