Biografia

Solo disponible en BuenasTareas
  • Páginas : 3 (746 palabras )
  • Descarga(s) : 0
  • Publicado : 6 de septiembre de 2010
Leer documento completo
Vista previa del texto
LOSING MY RELIGION

X=don't play
v=vibrato
Chords list: F-G-Am-Em-Dm-C-G(II)
Chords diagram;

F G G (II) Am Em Dm C
e|--1--| e|--3--| e|--0--|e|--0--| e|--0--| e|--1--| e|--0--|
B|--1--| B|--3--| B|--2--| B|--1--| B|--0--| B|--3--| B|--1--|
G|--2--| G|--0--| G|--2--| G|--2--| G|--0--| G|--2--| G|--0--|
D|--3--| D|--0--|D|--2--| D|--2--| D|--2--| D|--0--| D|--2--|
A|--X--| A|--2--| A|--0--| A|--0--| A|--2--| A|--X--| A|--3--|
E|--X--| E|--3--| E|--X--| E|--X--| E|--0--| E|--X--| E|--0--|

IntroAm Am
e|------0--------------|------0--------------|
B|---3-----3---1-------|---3-----3---1-------|
G|----------------2----|----------------2----|D|---------------------|---------------------|
A|---------------------|---------------------|
E|---------------------|---------------------|

Am Ame|------0--------------|------0--------------|
B|---3-----3---1-------|---3-----3---1-------|
G|----------------2----|----------------2----|
D|---------------------|---------------------|A|---------------------|---------------------|
E|---------------------|---------------------|

Guitar pass

e|--------------------|
B|--------------------|
G|---------2--0-------|
D|---0--2-------2-0---|A|-3----------------3-|
E|--------------------|

Am Em
Oh life is bigger, it's bigger than you.
Am Em
And you are not me, the lengths that I will go to.
Am
The distancein your eyes.
Em Dm G
Oh no, I've said too much, I've said enough.

#Guitar pass#
Am Em
That's me in the corner,that’s me in the spot light,
Am Em
Losing my religion. Trying to keep up with you.
Am
And I don't know if I can do it.
Em Dm G
Oh...
tracking img