Canon

Solo disponible en BuenasTareas
  • Páginas : 13 (3229 palabras )
  • Descarga(s) : 0
  • Publicado : 13 de septiembre de 2010
Leer documento completo
Vista previa del texto
rock |
Send "Mattrach - New Canon Rock" Ringtone to Cell Phone
The New Canon Rock


W W
E||-------------------|-------------------|
B||-------------------|-------------------|G||-------------------|-------------------|
D||-------------------|-------------------|
A||-------------------|-------------------|
E||-------------------|-------------------|


W W
-------------------|-------------------|-------------------|-------------------|
-------------------|-------------------|
-------------------|-------------------|
-------------------|-------------------|
-------------------|-------------------|


W W
-------------------|-------------------|-------------------|-------------------|
-------------------|-------------------|
-------------------|-------------------|
-------------------|-------------------|
-------------------|-------------------|


\1/W H H
-------------------|--------------------|
-------------------|-----------9--------|
-------------------|--------------------|
-------------------|--------------------|
-------------------|--------------------|
-------------------|--------------------|\1/
H H H Q Q
------------------------|-------------------------|
--19~--------17~--------|--15~--------14~----5----|
------------------------|-------------------------|------------------------|-------------------------|
------------------------|-------------------------|
------------------------|-------------------------|


H H H Q E E
------------------------|----------------------------|--12~--------10~--------|--12~--------14~----15--17--|
------------------------|----------------------------|
------------------------|----------------------------|
------------------------|----------------------------|
------------------------|----------------------------||---3---|
Q Q E E S S S E
--------------------15--14h-15p-14-----|
--17b-----L~----17-----------------17--|
---------------------------------------|
---------------------------------------|
---------------------------------------|---------------------------------------|


Q. S S S S E Q
----------------------------17b----|
--15~------17p-15-14-15------------|
------------------------14---------|
-----------------------------------|
-----------------------------------|...
tracking img