Dfbb

Solo disponible en BuenasTareas
  • Páginas : 4 (903 palabras )
  • Descarga(s) : 0
  • Publicado : 8 de noviembre de 2010
Leer documento completo
Vista previa del texto
Estos simbolos suelen estar escritos en inglés:
)     = Bend
 
/     = Slide 

~~    = Vibrato

h     = Hammer on

p     = Pulloff

PM    = Palm mute 

x\x   = Pick scrape (rasgar con lapua)

NH    = Armonico natural (Natural armonic)

+     = Tremelo Pick

)     = Unison Bend

|     = Ghost Bend (Bend fantasma)

|\    = Ghost Bend and release  (Bend fantasma y soltar)*     = Retroalimentacion descontrolada (Uncontrolled feedback)

A continuacion os explicamos que hay que hacer en algunas de las tecnicas mas comunes:

BEND:
Se toca la primera nota y luego seestira la cuerda de la guitarra con el dedo que presiona el mástil hasta alcanzar un medio tono, tono completo o segun se indique.
E-|------------------|
B-|----5)------------|G-|------------------|
D-|------------------|
A-|------------------|
E-|------------------|
 
HARMONICO NATURAL:
Se toca la cuerda ligeramente sin llegar a presionar con la mano que toca el mástil en el traste quese indique y despues pulsa en el trate la nota.
 
HARMONICO ARTIFICIAL (PINCH):
Despues de que la nota es tocada normalmente, se toca ligeramente con la punta de el dedo de la mano que hace el pick, sin llegar a apagar el sonido de la nota (una octava más arriba de la nota tocada originalmente) para producir el sonido de un harmónico. (pinch) A.H.
E-|----9-------------|
B-|------------------|G-|------------------|
D-|------------------|
A-|------------------|
E-|------------------|
 
PALM MUTE:
La nota es ligeramente apagada con el filo de la mano que hace el pick mientras estaesta tocando las notas.
E-|------------------|
B-|------------------|
G-|------------------|
D-|------------------|
A-|------------------|
E-|--0--0--0--0-----|
 

SLIDE:
Se toca la notaprimera nota y se corre el dedo hasta un trasto más arriba o más abajo segun sea el caso.La segunda nota no es tocada con la mano que hace el pick.
E-|------------------|
B-|----5/8-----------|...
tracking img