Ejercicios de digitación para guitarra

Solo disponible en BuenasTareas
  • Páginas : 7 (1706 palabras )
  • Descarga(s) : 0
  • Publicado : 26 de octubre de 2010
Leer documento completo
Vista previa del texto
Ejercicios
Ejercicio 1
Esto en realidad corresponde al bajo de un Rock & Roll clásico de los 50s. Parece simple de tocar (de hecho todos los ejercicos lo son), sobre todo si sólo uñetean hacia abajo, pero la gracia es hacer las cosas más difíciles. Por ahora la velocidad no importa, eso se consigue con el tiempo. El ejercicio:
D U D U D U D U D......e|--------------------------------------------------------------
B|--------------------------------------------------------------
G|--------------------------------------------------------------
D|-------------2-(2)-3-3-2-2----------------------2-(2)-3-3-2-2-
A|-----2-2-5-5---------------5-5-2-2------2-2-5-5---------------
E|-3-3--------------------------------3-3-----------------------e|--------------------------------------------------------------
B|--------------------------------------------------------------
G|----------------------2-(2)-3-3-2-2---------------------------
D|--------------2-2-5-5---------------5-5-2-2--------------2-(2)
A|-5-5-2-2--3-3------------------------------------2-2-5-5------
E|---------------------------------------------3-3--------------e|--------------------------------------------------------------
B|--------------------------------------------------------------
G|------------------------------4----------------2--------------
D|-3-3-2-2--------------4-4-7-7---7------2-2-5-5---5------------
A|---------5-5-2-2--5-5--------------3-3------------------2-2-3-
E|----------------------------------------------------3-3-------e|--------------------------------------------------------------
B|--------------------------------------------------------------
G|--------------------------------------------------------------
D|---------3-4-5-(5)--------------------------------------------
A|-3-4-4-5------------------------------------------------------
E|--------------------------------------------------------------
Ejercicio 2
Muy similar alanterior en la digitación, este "ejercicio" lo saqué de la canción "¿ Quién mató a Marilyn ?" de Los Prisioneros (grupo chileno de los '80). El uñeteo es exactamente igual para este y el resto de los ejercicios. Adjunto los acordes usados en la canción si es que quieren tocarla a dos guitarras.
B5 D#5
e|--------------------------------------------------------------B|--------------------------------------------------------------
G|--------------------------------------------------6-6-8-8-6-6-
D|-----------------7-7-9-9-7-7----------5-5-6-6-8-8-------------
A|-----6-6-7-7-9-9-------------9-9--6-6-------------------------
E|-7-7----------------------------------------------------------
E5 C#5 F#5
e|--------------------------------------------------------------B|--------------------------------------------------------------
G|----------------------9-9-7-7---------------------------------
D|-8-8------6-6-7-7-9-9---------9-9-7-7-------------------------
A|------7-7----------------------------------8-8-9-9-11--(9)-9-9
E|---------------------------------------9-9--------------------
e|--------------------------------------------------------------B|--------------------------------------------------------------
G|--------------------------------------------------------------
D|-8-8-9-9-11---------------------------------------------------
A|--------------------------------------------------------------
E|--------------------------------------------------------------
Ejercicio 3
Otra de Los Prisioneros, esta vez es "La voz de los '80".Notar el leve parecido al riff de "¿ Quién mató a Marilyn ?".
e|--------------------------------------------------------------
B|--------------------------------------------------------------
G|----------------------6-6-7-7-9-9-----------------------------
D|------------------7-7------------------4-4-5-5-7-7------------
A|-----6-6-7-7-9-9-------------------5-5------------------4-4-5-...
tracking img