Ejercicios de digitación para guitarra

Ejercicios
Ejercicio 1
Esto en realidad corresponde al bajo de un Rock & Roll clásico de los 50s. Parece simple de tocar (de hecho todos los ejercicos lo son), sobre todo si sólo uñetean haciaabajo, pero la gracia es hacer las cosas más difíciles. Por ahora la velocidad no importa, eso se consigue con el tiempo. El ejercicio:
D U D U D U D U D......e|--------------------------------------------------------------
B|--------------------------------------------------------------
G|--------------------------------------------------------------D|-------------2-(2)-3-3-2-2----------------------2-(2)-3-3-2-2-
A|-----2-2-5-5---------------5-5-2-2------2-2-5-5---------------
E|-3-3--------------------------------3-3-----------------------e|--------------------------------------------------------------
B|--------------------------------------------------------------
G|----------------------2-(2)-3-3-2-2---------------------------D|--------------2-2-5-5---------------5-5-2-2--------------2-(2)
A|-5-5-2-2--3-3------------------------------------2-2-5-5------
E|---------------------------------------------3-3--------------e|--------------------------------------------------------------
B|--------------------------------------------------------------
G|------------------------------4----------------2--------------D|-3-3-2-2--------------4-4-7-7---7------2-2-5-5---5------------
A|---------5-5-2-2--5-5--------------3-3------------------2-2-3-
E|----------------------------------------------------3-3-------e|--------------------------------------------------------------
B|--------------------------------------------------------------
G|--------------------------------------------------------------D|---------3-4-5-(5)--------------------------------------------
A|-3-4-4-5------------------------------------------------------
E|--------------------------------------------------------------
Ejercicio 2
Muy similar al anterior en la digitación,...
tracking img