Kike

Solo disponible en BuenasTareas
  • Páginas : 5 (1017 palabras )
  • Descarga(s) : 6
  • Publicado : 22 de octubre de 2009
Leer documento completo
Vista previa del texto
Intro: (Play 12 times)
======
1|---------------------------------------------------------------------------|
2|---------------------------------------------------------------------------|
3|---------------------------------------------------------------------------|
4|------------5--------------------------------------------------------------|5|--------7---------------7--------------------------------------------------|
6|----0-----------6---5------------------------------------------------------|

Rhythm Fill 1:
==============
E5
PM------------------| sl PM----------------------| sl
1|---------------------------------------------------------------------------|
2|---------------------------------------------------------------------------|3|---------------------------------------------------------------------------|
4|---------------------------------------------------------------------------|
5|--2---------------------------/7------------------------------/7-----------|
6|--0---0---0---0---0---0---0--------0---0---0---0---0---0---0---------------|
|-------------3x------------|

F5 E5 *F5 E5
PM--|PM------| P PM--| PM--| P
1|---------------------------------------------------------------------------|
2|---------------------------------------------------------------------------|
3|---------------------------------------------------------------------------|
4|---------------------------------------------------------------------------|5|----------7------------------3\2-------------7-------------------3\2-------|
6|--0---0------6---0---0---0---1\0-----0---0-------6---5---0---0---1\0-------|
|-------------4x-------------| |--------------8x-------------|
When playing the F5-E5 pulloffs, the E5 is not strummed.
* Skip the F5-E5 pulloff on the 8th repetition.

Rhythm Fill 2:
==============
E5 G5 E5G5 E5 F#5 G5 F#5
sl V PM------------------|
1|---------------------------------------------------------------------------|
2|---------------------------------------------------------------------------|
3|---------------------------------------------------------------------------|
4|---------------------------------------------------------------------------|5|--2---2----/7--------------5-------5-------4---5---4-----------------------|
6|--0---0---------6---5------3---0---3---0---2---3---2-----------------------|
|-------3x--------|
(Repeat Rhythm Fill 2 once)

Rhythm Fill 3:
==============
E5 F5 E5 F5 E5
PM------------------| P PM-----------------------| P1|---------------------------------------------------------------------------|
2|---------------------------------------------------------------------------|
3|---------------------------------------------------------------------------|
4|---------------------------------------------------------------------------|
5|--2----------------------------3\2-------------------------------3\2-------|6|--0---0---0---0---0---0---0----1\0---0---0---0---0---0---0---0---1\0-------|

E5 G5 E5 G5 E5 F#5 G5 F#5

PM----------------------| PM-----------|
1|---------------------------------------------------------------------------|
2|---------------------------------------------------------------------------|3|---------------------------------------------------------------------------|
4|---------------------------------------------------------------------------|
5|---------------------------------5-------5-------4---5---4-----------------|
6|--0---0---0---0---0---0---0------3---0---3---0---2---3---2-----------------|

Say your prayers, little one
Don't forget, my son
To include everyone
(Repeat Rhythm Fill 3 once)
Tuck you in, warm within
Keep you...
tracking img