Love bug - michemical romance

Solo disponible en BuenasTareas
  • Páginas : 4 (878 palabras )
  • Descarga(s) : 0
  • Publicado : 29 de mayo de 2011
Leer documento completo
Vista previa del texto
Intro
-Gtr. 1
e|-------------------------|----|--------------------|
B|-------------------------|----|--------------------|G|----8-8---6-6---9-9-9-9--|----|----8-8---6-6---9~--|
D|----9-9---7-7---9-9-9-9--|-x5-|----9-9---7-7---9~--|A|---------------7-7-7-7---|----|----------------7~--|
E|---7-7---5-5-------------|----|---7-7---5-5--------|
Called her for the first time yesterday
Finally found the missing part of meFelt so close, but you were far away
Left me without anything to say
Chorus
-Gtr. 1e|-------------------------------------------|
B|-------------------------------------------|
G|----9-9-9-9---9-9-9-9---6-6-6-6---9-9-9-9--|D|----9-9-9-9---9-9-9-9---7-7-7-7---9-9-9-9--| x2
A|---7-7-7-7---6-6-6-6-------------7-7-7-7---|
E|-----------------------5-5-5-5-------------|
Now I'm speechless, over theedge
I'm just breathless, I never thought
That I'd catch this love bug again

Hopeless, head over heels in theMoment, I never thought that I'd
Get hit by this love bug again

Post-Chorus
-Gtr. 1e|---------------------------|
B|---------------------------|
G|----8-8---6-6---9-9---9-9--|
D|----9-9---7-7---9-9---9-9--| x2A|---------------7-7---7-7---|
E|---7-7---5-5---------------|

-Gtr. 2
e|----------------------------------------------------------------------|...
tracking img