Marco barrientos

Solo disponible en BuenasTareas
  • Páginas : 2 (270 palabras )
  • Descarga(s) : 0
  • Publicado : 15 de marzo de 2012
Leer documento completo
Vista previa del texto
Intro
-----4-------4------------------
---5-----5h7---------4-------4--
-6-----6-----------4-----4h6---------------------6-----6--------
--------------------------------
--------------------------------

---------------------------------------5---5--------4--------4--
-----6-------6----4------4h6----
-6s7-----7------6------6--------
----------------------------------------------------------------

-----4-------4------------------
---5-----5h7---------4-------4---6-----6-----------4-----4h6----
-----------------6-----6--------
--------------------------------
-------------------------------------------7-------------9------
-------5-----5------7------7----
-----6------------8-------------
-6s7-----7------9------9----------------------------------------
--------------------------------

Acordes: C#m E F#m G#m

Verso-----12------4-----------------
---9-------5--------2--4-------
-9-------6--------2------4---4-
----------------4----------4----------------------------------
-------------------------------

Pre-Verso
-----4-----4-----4-----7-----5---4----5-----5-----5-----5-----5-------
-6-----6-----6-----6-----6-----6---
-----------------------------------
-----------------------------------...
tracking img