Musica

Solo disponible en BuenasTareas
  • Páginas : 2 (370 palabras )
  • Descarga(s) : 0
  • Publicado : 8 de noviembre de 2010
Leer documento completo
Vista previa del texto
Intro
e-----------------------------------------------------
B--------------------------------------8h10-----------
G--------------------------10-12-12p10------10-10/12--D--------10-10h12----10-12----------------------------
A--11/12----------12----------------------------------
e-------------------------8/10-8-----------------------------B---------------------10--8/10-8--10-8-8h10------------------
G------10-12-12-10-12-----------------------------10-10h12---
D10-12--------------------------------------10/12----------11
Verso 1
F F7 A# A#m
Todo cambió,cuando te ví
F F7 A# A#m
de blanco y negro a color, me convertí
Gm Am
y fue tán fácil, quererte tanto,
A# Am
algo que noimaginaba,
A# C A#
fue entregarte mi amor con una mirada.
Riff 1
e-------------------
B--1/3-1------------
G-2------2-3--------
Verso 2
FF7 A# A#m
Ohhhh no no no no....Todo tembló, dentro de mi
F F7 A# A#m
el universo escribió, que fueras para mi
Gm Am
yfué tan fácil quererte tanto
A# Am
algo que no imaginaba
A#m Am
fue perderme ( en tu amor )
A#
simplemente ( pasó )
C
y todotuyo ya soy.
Coro
A# C
Antes que pasé más tiempo contigo amor
F F7
tengo que decir que eres el amor de mi vida,
A#C
antes que te ame más, escucha por favor
F A#
dejame decir que todo te dí.
Gm
Y no hay (como explicar)
Am
pero menos ( dudar )
A#C
simplemente así lo sentí
A#
cuando te ví.
Riff 1
e-------------------
B--1/3-1------------
G-2------2-3--------
Verso 3
F F7 A# A#m
Me sorprendió...
tracking img