Nemesis

Solo disponible en BuenasTareas
  • Páginas : 33 (8073 palabras )
  • Descarga(s) : 0
  • Publicado : 23 de agosto de 2010
Leer documento completo
Vista previa del texto
ARTIST:Chimaira
SONG:Resurrection
ALBUM:Resurrection
TABBED BY:h8urlife
TUNING: C G C F A D

(Intro)
d|--------------------------------|
A|--------------------------------|
F|--------------------------------|C|--------------------------------|
G|-7-----5-----3-----2------------|
C|-7-0-0-5-0-0-3-0-0-2--0-3-5-3-2-|
x x x x x x

d|------------------------------------------------------|
A|------------------------------------------------------|F|------------------------------------------------------|
C|-------3-------3-2---------------3-------3-2----------|
G|-5-3-0-3-3-5-3-3-2--3-5-2--5-3-0-3-3-5-3-3-2----------|
C|-5-3-0---3-5-3------3-5-2--5-3-0---3-5-3------0000000-|
x x x x x x x x x x x x x x x xxxxxxxd|---------------------------------------------|
A|---------------------------------------------|
F|---------------------------------------------|
C|-------3-------3-2---------------3-------3-2-|
G|-5-3-0-3-3-5-3-3-2--3-5-2--5-3-0-3-3-5-3-3-2-|
C|-5-3-0---3-5-3------3-5-2--5-3-0---3-5-3-----|
x x x x x xx x x x x x x x x

d|------------------------------| d|---------------------|
A|------------------------------| A|---------------------|
F|------------------------------| F|---------------------|
C|-------3-------3-2------------| (3x) C|-------3-------3-2---| (1x)G|-5-3-0-3-3-5-3-3-2--3-5-2-3-2-| G|-5-3-0-3-3-5-3-3-2-0-|
C|-5-3-0---3-5-3------3-5-2-3-2-| C|-5-3-0---3-5-3-----0-|
x x x x x x x x x x x x x x x x x

d|-------------------------------------|---------------------------------|A|-------------------------------------|---------------------------------|
F|-------------------------------------|---------------------------------|
C|-------------------------------------|---------------------------------|
G|-7-----------------------------------|---------------------------------|
C|-7-0000-5-0000-3-0000-2-0000-0-3-5-3-|-3-3-3-3-3-3-3-3-6-6-6-6-6-6-6-6-|d|-------------------------------------|-----------|
A|-------------------------------------|-----------|
F|-------------------------------------|-----------|
C|-------------------------------------|-----------|
G|-7-----------------------------------|--3~---6~--|C|-7-0000-5-0000-3-0000-2-0000-0-3-5-3-|--3~---6~--|

d|-------------------------------------|
A|-------------------------------------|
F|-------------------------------------|
C|-------------------------------------|
G|-7------5------3------2--------------|C|-7-0000-5-0000-3-0000-2-0000-0-3-5-3-|
xxxx xxxx xxxx xxxx

Chorus:


d|------------------------------------------------------------------------------------------------|
A|------------------------------------------------------------------------------------------------|...
tracking img