Pach adams

Solo disponible en BuenasTareas
  • Páginas : 9 (2120 palabras )
  • Descarga(s) : 0
  • Publicado : 23 de octubre de 2010
Leer documento completo
Vista previa del texto
División Minúscula
La última y me voy
Intro se toca dos veces
5|- 9-11-11-11-11-11-9--9-11-11-11-11-11-9-------------------------------|
6|-----------------------------------------------------------------------|

4|----11-11-11-11-11-11----9-9-9-9-9-9-----------------------------------|
5|-9--11-11-11-11-11-11----9-9-9-9-9-9-----------------------------------|6|----9--9--9--9--9--9-----7-7-7-7-7-7-----------------------------------|
A C# B
Más de un mes tardé en ir a pie del DF a Texas
A C# B
Pude ver a Monterrey brillar en las estrellas
A C# B
Me esmeré buscando un lugar que me divierta
A B C
Y ahora sé, que está en mi cabeeeeza.
E C#A
Y ésta vez, yo me perderé
Am E
En el fondo del mar, juntito al mas allá
C# A
Quiero ver, algo de verdad
B C
Algo porqué vivir, o porqué morir
A C# B A C# B
pa parapapapapapa parapapapapapa parapapapapapa parapap
A C# BTu fiesta es igual que la de ayer, tan predescible
A C# B
Agradeceré que a la proxima ya no me invites
A C# B
Ellas son tan baratas en ropa tan cara
A B C
Mi corazón hoy lo guardo en caaaaasa.
E C# A
Y ésta vez, yo me perderé
Am E
En el fondo delmar, juntito al mas allá
C# A
Quiero ver, algo de verdad
B C
Algo porqué vivir, o porqué morir.

AHÍ ES EL REQUINTO ESTA FACIL LOS ACORDES QUE SE USAN SON:
C# - A - C# - A – E - B C - C# - A - C# - A - E - B C- E..
E C# A Am
pa parapapapapapa parapapapapapa parapapapapapa parapap

E C# A
Yésta vez, yo me perderé
Am E
En el fondo del mar, juntito al mas allá
E C# A
Quiero ver, algo de verdad
B C
Algo porqué vivir, o porqué morir.
E C# Algo porqué viviR A Am o porqué morir
pa parapapapapapa parapapapapapa parapapapapapa parapap
E ee! C# A B C Algo porquémorir E
pa parapapapapapa parapapapapapa parapapapapapa parapap
solo:

|-------------------------------------------------------------------------|
|-9-----10-10-12--9-----10-10-12-9--9-10-9-7------------------------------|
|---9---------------9-------------------------9/11--11-13-11-9-8----------|
|----11--------------11---------------------------------------------------||-------------------------------------------------------------------------|
|-------------------------------------------------------------------------|

|-------------------------------------------------------------------------|
|-9-----10-10-12--9-----10-10-12-9--9-10-9-7------------------------------|
|---9---------------9-------------------------9/11--11-13-11-9-8-9--------||----11--------------11---------------------------------------------------|
|-------------------------------------------------------------------------|
|-------------------------------------------------------------------------|

División Minúscula
Negligencia
Do9/Si
e|---|
B|-3-|
G|-0-|
D|-0-|
A|-2-|
E|---|
Empieza el bajo en La
Lam Fa
Amigos por favor
Sol
disculpenme si porerror
Fa Lam-SOl
los destruyo llego a lastimar
Lam Fa
pero es que en esta oscuridad
Sol
todos se quieren matar
Fa Lam-Sol
a quien se mueva pienso disparar
Lam - Do9/Si - Do - Fa - Sol
Lam - Do – Fa

Lam Fa
Yo se que no crees
Sol
en el mas allá
Fa...
tracking img