Pensamiento critico

Solo disponible en BuenasTareas
  • Páginas : 2 (409 palabras )
  • Descarga(s) : 4
  • Publicado : 4 de marzo de 2010
Leer documento completo
Vista previa del texto
INTRO
3 Compaces de piano y organo.

G: |--------|
D: |--------|
A: |--------|
E:|-----14/|

G: |-------------------|-------------------|(2x)
D: |-------------------|-------------------|
A:|---5-5-------4---4-|---5-5-------4---4-|
E: |-7-----2-2-6---6---|-7-----2-2-6---6---|

VERSO 1
G: |-----------------|-----------------|(4x)
D:|-----------------|-----------------|
A: |---5-------4---4-|---5-------4---4-|
E: |-7---2-2-6---6---|-7---2-2-6---6---|

CORO 1G: |-------------------|-------------------|(2x)
D: |-------------------|-------------------|
A: |---5-5-------4---4-|---5-5-------4---4-|
E:|-7-----2-2-6---6---|-7-----2-2-6---6---|

VERSO 2
G: |-------------------|-------------------|(2x)
D: |-------------------|-------------------|A: |---5-5-------4---4-|---5-5-------4---4-|
E: |-7-----2-2-6---6---|-7-----2-2-6---6---|


G:|-----------------|-----------------|
D: |-----------------|-----------------|
A: |---5-------4---4-|---5-------4---4-|
E: |-7---2-2-6---6---|-7---2-2-6---6---|CORO 2
G: |-------------------|(7x)
D: |-------------------|
A: |---5-5-------4---4-|
E: |-7-----2-2-6---6---|BRIDGE
G: |--------------------------------|
D: |---------------------------4----|
A: |---5-----------5-2-4---1-4------|...
tracking img