Preguntas

Solo disponible en BuenasTareas
  • Páginas : 17 (4027 palabras )
  • Descarga(s) : 0
  • Publicado : 5 de septiembre de 2012
Leer documento completo
Vista previa del texto
(intro) Eb Bb Cm Ab

(solo)
E |-------------------------
B |----4-3-4-4-3-4-6--4-3-4-
G |--0---0----0---------1---
D |-------------------------
A |-------------------------
E |-------------------------

(riff) (na intro junto dosolo)
Eb Bb Cm Ab
E |----------------|----------------|----------------|---------------|
B |----------------|----------------|----------------|---------------|
G |----------------|----------------|----------------|---------------|
D|-5-5-3-5--3-5-0-|-0--------------|-5-5-3-5--3-5---|-6-6-5-6-------|
A |----------------|---3-5-3-5------|----------------|---------------|
E |----------------|----------------|----------------|---------------|

My life is brilliant...

(repete intro)

Eb
My life is brilliantBb
My love is pure
Cm
I saw an angel
Ab
Of that I'm sure

(riff)
Eb
She smiled at me on the subway
Bb
She was with another man
Cm
But I won'tlose no sleep on that
Ab
'Cause I've got a plan

D |--3--5--1--

(coro)
Ab Bb
You're beautiful
Eb
You're beautiful D|--3--5--1--
Ab Bb Eb
You're beautiful,it's true D|--3--5--1--
Ab Bb
I saw your face

D |--5----3----1--
Eb Bb Cm
In a crowded place
Ab Bb Cm
And I don't know what to do
Ab Bb Eb
'Cause I'll never be withyou

(solo)
E |-------------------------
B |----4-3-4-4-3-4-6--4-3-4-
G |--0---0----0---------1---
D |-------------------------
A |-------------------------
E |-------------------------

(riff) (na intro junto do solo)Eb Bb Cm Ab
E |----------------|----------------|----------------|---------------|
B |----------------|----------------|----------------|---------------|
G |----------------|----------------|----------------|---------------|
D|-5-5-3-5--3-5-0-|-0--------------|-5-5-3-5--3-5---|-6-6-5-6-------|
A |----------------|---3-5-3-5------|----------------|---------------|
E |----------------|----------------|----------------|---------------|

Eb
Yes, she caught my eye
Bb
As we walked on by
Cm
She couldsee from my face that I was
Ab
flying high

(riff - intro)
Eb Bb
And I don't think that I'll see her again
Cm Ab
But we shared a moment that will last to the end

D...
tracking img