Preguntas

Solo disponible en BuenasTareas
  • Páginas : 16 (3827 palabras )
  • Descarga(s) : 0
  • Publicado : 19 de septiembre de 2010
Leer documento completo
Vista previa del texto
Paint it black

|[pic]. |[pic]. |[pic]. |[pic]. |[pic]. |[pic]. |

Intro:
e|-------5-----------------------------------
B|-5-7-8---8-7-5-5---5-7----4-5-7--5-4---4---
G|-----------------8------6------------6-----

Riff 1
e|-------5---------------------
B|-5-7-8---8-7-5-5---5-7-5-4---
G|-----------------8-----------

Intro: Dm o Riff

DmA A7
[Riff 1] I see a red door and I want it painted black,
Dm A A7
[Riff 1] no colors anymore I want them to turn black
Dm C F G Dm
I see the girls walk by dressed in their summer clothes,
Dm C F G A A7
I have to turn myhead until my darkness goes.

Dm A A7
[Riff 1] I see a line of cars and they’re all painted black,
Dm A A7
[Riff 1] With flowers and my love both never to come back
Dm C F G Dm
I see people turn their heads and quickly look away
Dm CF G A A7
like a new born baby it just happens every day.

Dm A A7
[Riff 1] I look inside myself and see my heart is black
Dm A A7
[Riff 1] I see my red door and it has been painted black
Dm C F G Dm
Maybe then I’ll fade awayand not have to face the facts
Dm C F G A A7
It’s not easy facin’ up when your whole world is black

Dm A A7
[Riff 1] No more will my green sea go turn a deeper blue
Dm A A7
[Riff 1] I could not foresee this thing happening to you
DmC F G Dm
If I look hard enough into the settin’ sun
Dm C F G A A7
My love will laugh with me before the mornin’ comes

Dm A A7
[Riff 1] I see a red door and I want it painted black,
Dm A A7
[Riff 1] no colorsanymore I want them to turn black
Dm C F G Dm
I see the girls walk by dressed in their summer clothes,
Dm C F G A A7
I have to turn my head until my darkness goes.

Dm A
I wanna see it painted, painted black, black as night, black as coal
DmA
I wanna see the sun blotted out from the sky
Dm A
I wanna see it painted, painted, painted, painted black Yeah....

Toxyti

INTRO:(limpio)
e|------------------------------------------------------
B|---8---8---8---8---8---8-/--11--11--11--11--11--11----
G|-5---5---5---5---5---5---/-8---8---8---8---8---8------D|------------------------------------------------------
A|------------------------------------------------------
E|------------------------------------------------------

e|---------------------------------8---8----------------
B|---8---8---8-9--9-8--8----11----------11--11--9---9-8-
G|-5---5---5-----5----5--8-----8-----8-----8------8-----D|------------------------------------------------------
A|------------------------------------------------------
E|------------------------------------------------------

refran:(distorcion)
C Eb D C D C G# G
e|------------------------------------------------|
B|------------------------------------------------|
G|-5----------------------------------------------|
D|-5---------8-7-5-7-5--------6--6-6-6--5--5-5-5--|...
tracking img